Guitaretab - guitar tabs
Song name
# A B C D E F G H I J K L M N O P Q R S T U V W X Y Z

Jason Mraz - I Wont Give Up tab

-----------------------------------------------------------------------------
			I WON'T GIVE UP - Jason Mraz
-----------------------------------------------------------------------------


Tabbed by: Patrick Damian
E-Mail: pedamian@rocketmail.com

Based on his performance here:
http://www.youtube.com/watch?v=_KId5R_f-YI


Tuning: Drop D, CAPO 2nd Fret, All frets relative to Capo


Chords

   G         D         Bm         A       Asus       Em
|--x--|   |--2--|    |--2--|   |--0--|   |--0--|   |--0--|
|--x--|   |--3--|    |--3--|   |--2--|   |--3--|   |--0--|
|--4--|   |--2--|    |--4--|   |--2--|   |--2--|   |--0--|
|--4--|   |--0--|    |--4--|   |--2--|   |--2--|   |--2--|
|--5--|   |--0--|    |--2--|   |--0--|   |--0--|   |--2--|
|--5--|   |--x--|    |--x--|   |--x--|   |--x--|   |--2--|

  
   C         C#       A/D       F#
|--0--|   |--x--|   |--2--|   |--x--|
|--1--|   |--x--|   |--3--|   |--x--|
|--0--|   |--6--|   |--2--|   |-0h2-|
|--2--|   |--3--|   |--2--|   |--0--|
|--3--|   |--4--|   |--0--|   |--0--|
|--x--|   |--x--|   |--x--|   |--4--|



Intro and Verse:

e|----------------------------------------------------------------------|
B|----------------------------------------------------------------------|
G|-------------------4--4----2--2-----2--2------------------------------|
D|-0--0-0---2--4-----5--5----4--4-----4--4------------------------------| x3
A|----------------------------------------------------------------------|
D|-------------------0-------0-----0------------------------------------|

  When I look into your eyes..

e|----------------------------------------------------------------------|
B|------------3--3----3--2----------------------------------------------|
G|------------2--2----2--2----------------------------------------------|
D|-4--2--0----2--2----2--2----------------------------------------------| 
A|------------0-----0----0----------------------------------------------|
D|----------------------------------------------------------------------|
  
  ..There's so much they hold


Chorus:

                 G       D
               
I  won't  give  up  on  us

                Bm          A

Even  if  the  skies  get  rough

                  G         D

I'm  giving  you  all  my  love

                      A - Asus - A

I'm  still  looking  up

[ Tab from: http://www.guitaretab.com/j/jason-mraz/303632.html ]
(Do 2nd Verse and 2nd Chorus with same Tabs and Chords as above)

........

                     A

God  knows  we're  worth  it
 
                     G

No,  I  won't  give  up



Bridge:

          Em

I  don't  wanna  be  someone  who  walks  away  so  easily

                                                       A/D

I'm  here  to  stay  and  make  the  difference  that  I  can  make

   Em

Our  differences  they  do  a  lot  to  teach  us  how  to  use

                                                  A/D

The  tools  and  gifts  we  got  yeah,  we  got  a  lot  at  stake

              C

And  in  the  end,  you're  still  my  friend  at  least  we  did  intend

                                                         C#

For  us  to  work  we  didn't  break,  we  didn't  burn

                                                                   C

We  had  to  learn  how  to  bend  without  the  world  caving  in

                                   C#                    (break)

I  had  to  learn  what  I've  got,  and  what  I'm  not

           D

And who I am


(Repeat 1st Chorus)


Extra Verse Lyrics: (Use Verse Tabs)

So easy is our lives
What's mine is yours and yours mine
Hardly do we ever fight
We'd rather be kind

Extra Chorus Lyrics: (Use Chorus Chords)

I won't give up on us
Even if the skies get dark
I'm healing this broken heart
And I know I'm worth it

I won't give up on us (no I'm not giving up)
God knows I'm tough, I am loved (I am tough, I am loved)
We've got a lot to learn (we're alive, we are loved)  
God knows we're worth it (God knows we're worth it)

No, I won't give up on us (no I'm not giving up)
God knows I'm tough enough (I am tough, I am loved)
We've got a lot to learn (we're alive, we are loved)  
And we're, and we're worth it (and we're worth it)

No, I won't give up

Outro:  G  D  F# (2x)
        G  D


That's all. Please don't forget to rate if you have the time.
Any comments, feedbacks, suggestions, would be greatly appreciated.
Remember to use the chords that I posted above at the beginning.
Thanks for viewing. Happy playing!



************************************

| /   slide up
| \   slide down
| h   hammer-on
| p   pull-off
| ~   vibrato
| +   harmonic
| x   Mute note
| b   Bend
| pb  Pre-bend
| br  Bend release
| pbr Pre-bend release
| brb Bend release bend

************************************
Related for I Wont Give Up tab
I Wont Give Up chords by Jason Mraz