Song name
# A B C D E F G H I J K L M N O P Q R S T U V W X Y Z

Jason Mraz - Running tab

JASON MRAZ - RUNNING
TAbbed by Donovan contact at crankyd_my@hotmail.com

I claim no rights to the tab nor the song,
free to use by all.

normal
Tuning:Standard
Verse
e|---x-----------------------------------------------------------------------|
B|---0---4/2-----------------------------------------------------------------|
G|---6---4/2-----------------------------------------------------------------|
D|---4---4/2-----------------------------------------------------------------|
A|---x-----------------------------------------------------------------------|
E|---5---4/2-----------------------------------------------------------------|
i'm running to catch up again
jumping higher and flying more often than not
Your trampoline has got holes in it but i can still see the top
Let me climb aboard and sample some of next year's fashion
I'll wear the coat if you can put the hat on, i will wear the coat,
Just let me clear my throat
so i can say what's been delayed away


Chorus
e|------------------5--------------------------------------------------------|
B|------4-----2-----5--------------------------------------------------------|
G|--1---4-----2-----6--------------------------------------------------------|
D|--2---4-----2-----7--------------------------------------------------------|
A|--2---------------7--------------------------------------------------------|
E|------4-----2-----5--------------------------------------------------------|
Let me crawl into your lap and just lay here for awhile
Satisfied by your seduction like a handshake would do the job
Never know how long i have waited
anticipated your smile to be pressed against mine
your smile pressed against mine
Well i feel it. (oh boy
and i'm gonna settle tight




Verse
e|---x-----------------------------------------------------------------------|
B|---0---4/2-----------------------------------------------------------------|
G|---6---4/2-----------------------------------------------------------------|
D|---4---4/2-----------------------------------------------------------------|
A|---x-----------------------------------------------------------------------|
E|---5---4/2-----------------------------------------------------------------|
She could pour me over that sugar hill or mountain
Until i get that cool breeze, a tight squeeze, i'd do it over again
And i drink from her ever flowing fountain
And then i wake up i comb my hair and i hurry it up
But i arrive late i pack my things and i pick it up
Well i put down a good amount of deodorant on this morning
And i found that i could drown a little bit of peace of mind
well it's no secret that to some degree they're gonna have to see you sweat
Strong enough for a man just do what you can to keep me soft and dry
i stink awhile



Chorus
e|------------------5--------------------------------------------------------|
B|------4-----2-----5--------------------------------------------------------|
G|--1---4-----2-----6--------------------------------------------------------|
D|--2---4-----2-----7--------------------------------------------------------|
A|--2---------------7--------------------------------------------------------|
E|------4-----2-----5--------------------------------------------------------|
I don't know anything about those things
I almost don't wanna know anything about those things
Oh i don't care anything about those things
Cause if i did you know i'd share myself on those things
and i feel it oh boy




interlude
e|--0---0-----0------0--------------------------------------------------------|
B|--0---6-----0------6--------------------------------------------------------|
G|--9---6-----9------6--------------------------------------------------------|
D|--10--5-----10-----5--------------------------------------------------------|
A|--10--4-----10-----4--------------------------------------------------------|
E|--8---x-----8------x--------------------------------------------------------|
I'll be, i'll be here all night
i'll pick up the pieces and i put them back together now
They may not be the right way but that's okay
as long as they're all the same



bridge pluck
e|---------------------------------------------------------------------------|
B|---------------------------------------------------------------------------|
G|--0---0-----0-----0--------------------------------------------------------|
D|--0---0-----0-----0--------------------------------------------------------|
A|--7---2-----7-----2--------------------------------------------------------|
E|--8---3-----8-----3--------------------------------------------------------|
I wish you well, well that you'd get better
and i know you'll find that it's a wild world
and thats ok cuz you're a wild girl



bridge strum
e|-----------------------------------------------------------------|
B|-----------------------3/4------3--3--/-8-3----------0----3/4----|
G|--0---0-----0-----0--5-5--------0--0--/-0-0----------0--5-5------|
D|--0---0-----0-----0--5-4--------0--2h-/-0-0--rpt x3--2--5-4------|
A|--7---2-----7-----2--x-5--------2h-3--/-7-2h---------2--x-5------|
E|--8---3-----8-----3/25-x--------3--x--/-8-3----------0--5-x------|

--------------------------------------------------------------|
-3--0--3--0--3-0---0----------------------------0---7-0--3/4--|
-0--0--0--5--5-4---0----------------------------4---7-5--5----|
-0--2-2h--5--4-5---2--rpt x3-----(3rd end with)>5---x-5--4----|
-2h-2--3--x--5-5---2----------------------------5---7-x--5----|
-3--0--x--5--x-3/2-0----------------------------3/2---5--x----|

and i took......on all this   love and watch me....my skin I...   I don't 
be..............cheeks are through    So i don't believe


and i took the hits and i turned to shit
And if you had noticed well would you have thrown the towel in
Before i missed out on all this love
and watch me roll away again
Watch me disappear under my skin I... I .......I......I
I don't believe it that things could get any worse than they did that time
You must have seen it
i mean how could we get lost running in a straight line
Your cries of why's and why nots, may it all get back to you
And trickle and dance upon your headaches
years of biting cheeks are through
So i don't believe in it

chorus

Chorus

e|------------------5--------------------------------------------------------|
B|------4-----2-----5--------------------------------------------------------|
G|--1---4-----2-----6--------------------------------------------------------|
D|--2---4-----2-----7-----till end-------------------------------------------|
A|--2---------------7--------------------------------------------------------|
E|------4-----2-----5--------------------------------------------------------|
But i feel it. x 6
Tap to rate this tab
# A B C D E F G H I J K L M N O P Q R S T U V W X Y Z