Song name
# A B C D E F G H I J K L M N O P Q R S T U V W X Y Z

Jason Mraz - Hey Love tab

-------------------------------------------------------------------------------
			     HEY LOVE - Jason MRaz
-------------------------------------------------------------------------------
Tabbed by: ericjcorriea
Email: ericjcorriea@gmail.com

Tuning: Standard

Listened to this song and just kinda played around till it sounded right.
There's a few variations of some of the chords he plays,
but if you're looking to play and sing along,
I think this is the most accurate tab out there.  Enjoy!

Intro & Verse:

e|--------------------------------------------|
B|----6---6-----6---6------4---4-----4---4----|
G|----6---6-----6---6------4---4-----4---4----|
D|----6---6-----6---6------4---4-----4---4----|
A|-4----4--4--4---4--4------------------------|
E|----------------------4----4--4--4---4--4---|

e|--------------------------------------------|
B|--------------------------------------------|
G|----8---8-----8---8------6---6-----5---5----|
D|----9---9-----9---9------6---6-----6---6----|
A|----9---9-----9---9------6---6-----6---6----|
E|-7----7--7--7---7--7--4----4--4--4---4--4---|

Pre-chorus:

e|--------------------------------------------|
B|--------------------------------------------|
G|----8---8-----8---8------6---6-----5---5----|
D|----9---9-----9---9------6---6-----6---6----|   x2
A|----9---9-----9---9------6---6-----6---6----|
E|-7----7--7--7---7--7--4----4--4--4---4--4---|

Chorus:

e|--------------------------------------------|
B|----6---6-----6---6------4---4-----4---4----|
G|----6---6-----6---6------4---4-----4---4----|
D|----6---6-----6---6------4---4-----4---4----|
A|-4----4--4--4---4--4------------------------|
E|----------------------4----4--4--4---4--4---|
                                                   x2
e|--------------------------------------------|
B|--------------------------------------------|
G|----8---8-----8---8------6---6-----5---5----|
D|----9---9-----9---9------6---6-----6---6----|
A|----9---9-----9---9------6---6-----6---6----|
E|-7----7--7--7---7--7--4----4--4--4---4--4---|

then:

e|--------------------------------------------|
B|--------------------------------------------|
G|----8---8-----8---8------6---6-----5---5----|
D|----9---9-----9---9------6---6-----6---6----|     x3
A|----9---9-----9---9------6---6-----6---6----|
E|-7----7--7--7---7--7--4----4--4--4---4--4---|

Chorus:

e|--------------------------------------------|
B|----6---6-----6---6------4---4-----4---4----|
G|----6---6-----6---6------4---4-----4---4----|
D|----6---6-----6---6------4---4-----4---4----|
A|-4----4--4--4---4--4------------------------|
E|----------------------4----4--4--4---4--4---|

e|--------------------------------------------|
B|--------------------------------------------|
G|----8---8-----8---8------6---6-----5---5----|
D|----9---9-----9---9------6---6-----6---6----|
A|----9---9-----9---9------6---6-----6---6----|
E|-7----7--7--7---7--7--4----4--4--4---4--4---|

Outro:

e|--------------------------------------------|
B|----6---6-----6---6------4---4-----4---4----|
G|----6---6-----6---6------4---4-----4---4----|
D|----6---6-----6---6------4---4-----4---4----|
A|-4----4--4--4---4--4------------------------|
E|----------------------4----4--4--4---4--4---|

e|--------------------------------------------|
B|--------------------------------------------|
G|----8---8-----8---8------6---6-----5---5----|
D|----9---9-----9---9------6---6-----6---6----|
A|----9---9-----9---9------6---6-----6---6----|
E|-7----7--7--7---7--7--4----4--4--4---4--4---|

Kind of simple and repetitive, but a wonderful song.
Hope you enjoy, please rate so people can have a bit better tab of this song!!!!

************************************

| /   slide up
| \   slide down
| h   hammer-on
| p   pull-off
| ~   vibrato
| +   harmonic
| x   Mute note
| b   Bend
| pb  Pre-bend
| br  Bend release
| pbr Pre-bend release
| brb Bend release bend

************************************
Tap to rate this tab
# A B C D E F G H I J K L M N O P Q R S T U V W X Y Z