Song name
# A B C D E F G H I J K L M N O P Q R S T U V W X Y Z

Jason Mraz - Freedom Song tab

Freedom Song by Jason Mraz.
It's a great song with three chords.
Below you can see how you should play this song.
Goodluck!

  0=========================0
  |Jason Mraz - Freedom Song|
  0=========================0

   Verse
E |--------------------------------|
B |----7--7--7--7------9--9--9--9--|
G |----7--7--7--7------9--9--9--9--|
D |----7--7--7--7------9--9--9--9--|
A |--9--------------11-------------|
E |--------------------------------|

   Chorus/Bridge
E |-------------------------------------------------------------|
B |----10-10-10-10-----9--9--9--9----7--7--7--7-----9--9--9--9--|
G |----9--9--9--9------9--9--9--9----7--7--7--7-----9--9--9--9--|
D |----11-11-11-11-----9--9--9--9----7--7--7--7-----9--9--9--9--|
A |--9--------------11-------------9-------------11-------------|
E |-------------------------------------------------------------|


[Verse]
I picture something, it's beautiful
It's full of life, and it is all blue
I've seen the sunset on the beach, yeah
It makes me feel calm
When I'm calm, I feel good


[Chorus]
And when I feel good, I sing
And the joy it brings makes me feel good
And when I feel good, I sing
And the joy it brings

I see birds fly across the sky
And everyone's heart flies together
Food is frying and people smiling
Like there is no other way to feel good


[Chorus]
And when I feel good, I sing
And the joy it brings makes me feel good
Cos when I feel good, I sing
Of the joy it brings

Come on along
I know you really wanna feel our song
We've got some life to bring
We've got some joy in this thing

Come on along
I know you really wanna feel our song
We've got some life to bring
We've got some joy in this thing


Come on along
I know you really wanna feel our song
We've got some life to bring
We've got some joy in this thing

Come on along
I know you really wanna feel our song
We've got some life to bring
We've got some joy in this thing



Can you feel, Can you feel
the joy that it, can you feel brings

If you can feel the joy
then you should let yourself sing

Hey, I love to share my things


[Chorus]
It brings me freedom, whoa
Got to get you some of that freedom
It's a smile you can feel in your heart beat

Singing freedom, whoa
You deserve your freedom
Dancing and feeling that beauty

Freedom, whoa
Well, it's all for you
all for you
all for you
all for you

Singing freedom, Whoa
Got to getcha some of that
Got to getcha some of that
Got to getcha some of that freedom





Something like that...
Tap to rate this tab
# A B C D E F G H I J K L M N O P Q R S T U V W X Y Z