Song name
# A B C D E F G H I J K L M N O P Q R S T U V W X Y Z

Jason Mraz - Clock Watching tab

Tuning: Standard (EADGBe)

I think this are the main things you need to know to play the song.
Practice it while listening to the original song.
If you know the chords once, you can play them however you want;)

Chords:
Verse:                          Chorus:
e|----0-----0-----0-----0---------3-----0-----0----------1---0---3------------|
B|----1-----3-----3-----1---------3-----3-----1----------1---1---3------------|
G|----0-----0-----0-----0---------0-----0-----2----------3---2---0------------|
D|----2-----4-----4-----2---------0-----4-----2----------3---2---0------------|
A|----3-----5-----2-----3---------x-----5-----0----------1---0---x------------|
E|--------------------------------3------------------------------3------------|


 Main Form(Intro+Verse)                                                
                
e|--------------------------'--------------------------------------------|
B|--------1---------------3-'--------3---------------1-------------------|
G|-----------0------------0-'-----------0------------0-------------------|
D|-----2--------2------4----'-----4--------0------2----------------------|
A|--3---------------5-------'--2---------------3-------------------------|
E|--------------------------'--------------------------------------------|

Going into chorus:                              Chorus:
e|------------------------3--------------------|----3----0-----0----0-------|
B|------1---------3-------3--------------------|----3----3-----1----1p0-----|
G|---------0------0-------0--------------------|----0----0-----2----2-------|
D|----2----------4--------0--------------------|----0----4-----2----2-------|
A|--3--------3/5----------x--------------------|----x----5-----0----0-------|
E|----------------------3-----2h3 2h3 2h3 2h3--|--3-------------------------|

Leaving chorus:
e|----1----0----3----3---|         --1---0-----------------|
B|----1----1----3----3---|         --1---1-----------------|
G|----3----2----0----0---|reapeat  --3---2-----------------|and back to main form
D|----3----2----0----0---|         --3---2-----------------|
A|----1----0----x----x---|         --1---0-----------------|
E|--------------3----3---|         ------------------------|

Bridge:(and its you, you are running...makes me crazy cra-cra-crazy...)
e|-----------------2--------2-----------------|
B|--------1-------3-3--------3----------------|
G|-----------0---2---2--------4---0--0--0--0--| and main form again.
D|-----2--------0---------4-------2--2--2--2--|
A|--3-------------------2---------3--3--3--3--|
E|--------------------------------------------|



| /  slide up
| h  hammer-on
| p  pull-off
| x  Mute note
Tap to rate this tab
# A B C D E F G H I J K L M N O P Q R S T U V W X Y Z