Song name
# A B C D E F G H I J K L M N O P Q R S T U V W X Y Z

Jason Mraz - I Wont Give Up tab

-----------------------------------------------------------------------------
                        I WON'T GIVE UP - Jason Mraz
-----------------------------------------------------------------------------


Tabbed by: Michael Gilbert
E-Mail: mjgj96@aim.com

IMPORTANT! READ FIRST

I tabbed out two different ways to learn this song.  One is in parts, so you memorize
the part, and then you just look at the order (Tab One).  The other way is the whole song
at once (Tab Two).  You can choose whichever method that suits your learning technique 
best, but both tabs are exactly the same when played.

Tuning: Standard (EADGBe)
Frets labeled in parenthesis () are optional

-----------------------------------------------------------------------------
TAB ONE

Part A

e|-------------------------------------|
B|-------------------------------------|
G|------------------6--6--4--4---4--4--| x3
D|--------------6---7--7--6--6---6--6--|
A|--7--7-7---9-------------------------|
E|------------------0-----0----0-------|

|------------------------|
|------------------------|
|-----------9--9---9--8--|
|--6--------9--9---9--9--|
|-----9--7--9--9---9--9--|
|-----------7----7-------|

Part B

|---------------------------------|
|----------5---4------------------|
|--6---9---6---4---6---9---8-9-8--|
|--7---9---6---4---7---9---9-9-8--|
|--7---7---4---2---7---7---9-9-9--|
|--5---0-----------5---0---7-7-7--|

Part C

|---------|
|---------|
|--6---8--|
|--7---9--|
|--7---9--|
|--5---7--|

Part D

|-(2)------------------------|
|--2-------------------------|
|--2------------8--8--9--8---| x2
|--4------------9--9--9--9---|
|--4------------9--9--9--9---|
|--2------------7--7--7--7---|

|---------------------------------------------------------|
|---------------------------------------------------------|
|---7-----------(10)-----------7----(10)-----9------------|
|---7------------13------------7-----13------9------------|
|---9------------10------------9-----10------7------------|
|--10------------11-----------10-----11-----(0)-----------|


Order:
Part A x2
Part B
Part A
Part B
Part C
Part D
Part B x2
Part B (Play this last one soft unless you want to sound exactly like the recording,
then play just the base (lowest) note)

-----------------------------------------------------------------------------
TAB TWO

e|-------------------------------------|
B|-------------------------------------|
G|------------------6--6--4--4---4--4--| x3
D|--------------6---7--7--6--6---6--6--|
A|--7--7-7---9-------------------------|
E|------------------0-----0----0-------|

|------------------------|
|------------------------|
|-----------9--9---9--8--|
|--6--------9--9---9--9--|
|-----9--7--9--9---9--9--|
|-----------7----7-------|

|-------------------------------------|
|-------------------------------------|
|------------------6--6--4--4---4--4--| x3
|--------------6---7--7--6--6---6--6--|
|--7--7-7---9-------------------------|
|------------------0-----0----0-------|

|------------------------|
|------------------------|
|-----------9--9---9--8--|
|--6--------9--9---9--9--|
|-----9--7--9--9---9--9--|
|-----------7----7-------|

|---------------------------------|
|----------5---4------------------|
|--6---9---6---4---6---9---8-9-8--|
|--7---9---6---4---7---9---9-9-8--|
|--7---7---4---2---7---7---9-9-9--|
|--5---0-----------5---0---7-7-7--|

|-------------------------------------|
|-------------------------------------|
|------------------6--6--4--4---4--4--| x3
|--------------6---7--7--6--6---6--6--|
|--7--7-7---9-------------------------|
|------------------0-----0----0-------|

|------------------------|
|------------------------|
|-----------9--9---9--8--|
|--6--------9--9---9--9--|
|-----9--7--9--9---9--9--|
|-----------7----7-------|

|---------------------------------|
|----------5---4------------------|
|--6---9---6---4---6---9---8-9-8--|
|--7---9---6---4---7---9---9-9-8--|
|--7---7---4---2---7---7---9-9-9--|
|--5---0-----------5---0---7-7-7--|

|---------|
|---------|
|--6---8--|
|--7---9--|
|--7---9--|
|--5---7--|

|-(2)------------------------|
|--2-------------------------|
|--2------------8--8--9--8---| x2
|--4------------9--9--9--9---|
|--4------------9--9--9--9---|
|--2------------7--7--7--7---|

|---------------------------------------------------------|
|---------------------------------------------------------|
|---7-----------(10)-----------7----(10)-----9------------|
|---7------------13------------7-----13------9------------|
|---9------------10------------9-----10------7------------|
|--10------------11-----------10-----11-----(0)-----------|

|---------------------------------|
|----------5---4------------------|
|--6---9---6---4---6---9---8-9-8--|
|--7---9---6---4---7---9---9-9-8--|
|--7---7---4---2---7---7---9-9-9--|
|--5---0-----------5---0---7-7-7--|

|---------------------------------|
|----------5---4------------------|
|--6---9---6---4---6---9---8-9-8--|
|--7---9---6---4---7---9---9-9-8--|
|--7---7---4---2---7---7---9-9-9--|
|--5---0-----------5---0---7-7-7--|

(Play this last one soft unless you want to sound exactly like the recording, then play
just the base (lowest) note)

|---------------------------------|
|----------5---4------------------|
|--6---9---6---4---6---9---8-9-8--|
|--7---9---6---4---7---9---9-9-8--|
|--7---7---4---2---7---7---9-9-9--|
|--5---0-----------5---0---7-7-7--|
Tap to rate this tab
# A B C D E F G H I J K L M N O P Q R S T U V W X Y Z