Song name
# A B C D E F G H I J K L M N O P Q R S T U V W X Y Z

Jason Mraz - I Never Knew You tab

(/) Slide Up  (\) Slide Down  (h) Hammer On  (p) Pull Off  (b) Bend (r) Release (v) Vibrato
Verse
E|---------------------------------------------------------------------------------|
B|-----7-----7-----7-------7-----7-------------5-----5-----5-----5-----5-----------|
G|-----7-----7-----7-------7-----7-------------4-----4-----4-----4-----4-----------|
D|-----5-----5-----5-------7-----7-------------5-----5-----5-----5-----5-----------|
A|--7-----------7-----7/9-----------9--7\3--3-----------3-----3-----------3--5-----|
E|--------7-------------------9-------------------3-----------------3--------------|


Of unintelligent life...
G,F,E,E,Am,Am/G,F#/D

So I would like...
Em, Bm, C


Instrumental part:
E|--------------|
B|--3--5--------|
G|--2--4--7--9--|
D|--2--5--7--9--|
A|--3--3--7--7--|
E|--------8--8--|
Tap to rate this tab
# A B C D E F G H I J K L M N O P Q R S T U V W X Y Z