Song name
# A B C D E F G H I J K L M N O P Q R S T U V W X Y Z

Jason Mraz - All Dialed In tab

-----------------------------------------------------------------------------
                             ALL DIALED IN - Jason Mraz
-----------------------------------------------------------------------------

I couldn't find a tab for the main riff, so here it is!

Tuning: Standard, Capo 4
                                                        u  d  u
e|------------------------------------------------------0--0--0-------------|
B|------------------------------------------------------0--0--0-------------|
G|---------------------------------------2--2-----1-----1--1--1-------------|
D|------------2--0-----------5--5--5--5--2--2p0---2-----2--2--2-------------|
A|--0--1/2-3--------0/3------5--5--5--5--2--2-----2-----2--2--2-------------|
E|----------------------3----3--3--3--3-----------------0--0--0-------------|

************************************

| /   slide up
| p   pull-off
| u   strum up
| d   strum down

************************************
Tap to rate this tab
# A B C D E F G H I J K L M N O P Q R S T U V W X Y Z