Song name
# A B C D E F G H I J K L M N O P Q R S T U V W X Y Z

Jason Mraz - Bright Eyes tab

Capo on the 3rd fret. This is a live version, i don't know if it's different from the
studio version though. This isn't completely right but it sounds pretty good and is close.

E|-----------------------------------------|
B|-------2-------2------6-6----------------|
G|-------2-------2------4-4--4-6-4---------|
D|---------------------------------7-------|
A|--0---------0-----0-5----5---------------|
E|-----------0-----------------------------|

E|-----------------------------------------|
B|-------2-------2------6-6----------------|
G|-------2-------2------4-4---6-4----------|
D|---------------------------------7-------|
A|--0---------0-----0-5----5---------------|
E|-----------0-----------------------------|

E|-----------------------------------------|
B|-------2-------2------6-6----------------|
G|-------2-------2------4-4--4-6-4---------|
D|---------------------------------7-------|
A|--0---------0-----0-5----5---------------|
E|-----------0-----------------------------|

E|-----------------------------------------|
B|-------2-------2------6-6----------------|
G|-------2-------2------4-4---6-4----------|
D|---------------------------------7-------|
A|--0---------0-----0-5----5---------------|
E|-----------0-----------------------------|

E|-----------------------------------------|
B|-------2-------2------6-6----------------|
G|-------2-------2------4-4--4-6-4---------|
D|---------------------------------7-------|
A|--0---------0-----0-5----5---------------|
E|-----------0-----------------------------|

E|---------------------------0--------------|
B|-------2-------2------------0-------------|
G|-------2-------2------1------1------------|
D|------------------------2------2----------|
A|--0---------0-----0------2----------------|
E|-----------0--------0------------0-0-2-4--|

Then the actual words start and you mostly just repeat this for a while

E|-----------------------------------------|
B|-------2-------2------6-6---6-6----------|
G|-------2-------2------4-4---4-4----------|
D|-----------------------------------------|
A|--0---------0------5-----5------5--------|
E|-----------0-----------------------------|

Then the second verse repeats something like

E|-----------------------------------------|
B|-------2-------2------2----2-------------|
G|-------2-------2------2----2-------------|
D|-----------------------------------------|
A|--0--------0-0-----0 0------0-0---0------|
E|-----------------------------------------|

E|-----------------------------------------|
B|-------2-------2------2----2-------------|
G|-------2-------2------2----2-------------|
D|-----------------------------------------|
A|-----------------------------------------|
E|---0-------0-0-----0-0------0-0---0------|

that ends with

E|-----------------------------------------|
B|-------2-------2-------------------------|
G|-------2-------2-------------------------|
D|-----------------------------------------|
A|-----------------------------------------|
E|---0-------0-0-----0-0--2--4-------------|

Then it goes back to this for a while

E|-----------------------------------------|
B|-------2-------2------6-6---6-6----------|
G|-------2-------2------4-4---4-4----------|
D|-----------------------------------------|
A|--0---------0------5-----5------5--------|
E|-----------0-----------------------------|

when he says "stored away in the corner of my heart" play the four high strings of Dm 
and then pauses

E|-----------------------------------------------|
B|-------2-------2------2----2---2-2---2-2--2----|
G|-------2-------2------2----2---2-2---2-2--2----|
D|-----------------------------------------------|
A|-------------0------0-----0--------------------|
E|---0-------0------0-----0----------------------|


then just kind of alternate plucking within the A chord and the Dm chord and I believe 
it ends on Dm.


Sorry this is scatter brained and confusing but from this you should be able to figure
out if you listen to the song and mess around with it :). its a beautiful song right?!
Tap to rate this tab
 
# A B C D E F G H I J K L M N O P Q R S T U V W X Y Z