Song name
# A B C D E F G H I J K L M N O P Q R S T U V W X Y Z

Jason Mraz - Dynamo Of Volition tab

Funny how I never thought there could be so many "versions" of one song (this goes 
for all songs), and they are all attempting the same "version."
In hopes to clear the air I bring to you this tab.  Feel free to suggest changes :).

Drop D tuning

Intro:
e-----------------------------------------|
b-----------------------------------------|
g--77-xxx-77-xxx-77-xxx-12-11-------------|
d--xx-xxx-xx-xxx-55-xxx-x--x--------------|
a--55-xxx-55-xxx-xx-xxx-10-9--------------|
e--00-xxx-00-xxx-00-xxx-0--0--------------|

e-----------------------------------------|
b-----------------------------------------|
g--77-xxx-77-xxx-77-xxx-12-11-------------|
d--xx-xxx-xx-xxx-55-xxx-x--x--------------|
a--55-xxx-55-xxx-xx-xxx-10-9--------------|
e--00-xxx-00-xxx-00-xxx-0--0--------------|

e-----------------------------------------|
b-----------------------------------------|
g--55-xxx-55-xxx-77-xxx-77-xxx------------|
d--33-xxx-33-xxx-55-xxx-55-xxx------------|
a--33-xxx-33-xxx-xx-xxx-55-xxx------------|
e--33-xxx-33-xxx-00-xxx-55-xxx------------|

repeat 3x

e--77-xxx-77-xxx-22-xxx-22-xxx------------|
b--77-xxx-77-xxx-22-xxx-22-xxx------------|
g--77-xxx-77-xxx-22-xxx-22-xxx------------|
d--77-xxx-77-xxx-22-xxx-44-xxx------------|
a--99-xxx-99-xxx-44-xxx-55-xxx------------|
e--99-xxx-99-xxx-44-xxx-55-xxx------------|

4th time just strike the end chord (depending on the version)...

e--77-xxx-77-xxx-2-2-2--------------------|
b--77-xxx-77-xxx-2-2-2--------------------|
g--77-xxx-77-xxx-2-2-2--------------------|
d--77-xxx-77-xxx-2-2-4--------------------|
a--99-xxx-99-xxx-4-4-5--------------------|
e--99-xxx-99-xxx-4-4-5--------------------|

Verse and Chorus: pick/strike these chords...
e--7-2-2---------------------|
b--7-2-2---------------------|
g--7-2-2---------------------|
d--7-2-2---------------------|
a--9-4-4---------------------|
e--9-4-5---------------------|

Bridge (changes length second time due to lyrics): "will you answer the call if..."
pick these chords
e-------------------------|
b-------------------------|
g--0-2-2-9----------------|
d--2-2-2-7----------------|
a--2-4-4-7----------------|
e--2-4-5-7----------------|


I = Intro
V = Verse
C = Chorus
B = Bridge

Pattern:

I-V-C-B-V-B-C
Tap to rate this tab
 
# A B C D E F G H I J K L M N O P Q R S T U V W X Y Z