Song name
# A B C D E F G H I J K L M N O P Q R S T U V W X Y Z

Jason Mraz - Be Honest tab

-----------------------------------------------------------------------------
                             Be Honest - Jason Mraz
-----------------------------------------------------------------------------
Tabbed by: Kadas
E-mail: aaron_pox@yahoo.com

Tuning: Standard

Intro:
    DM7
e|---5-------5h7-5----------7---10--13\----|
B|---7-------5---5----------6---9---12\----|
G|---6-------6--------------7---10--13\----|
D|---------------------5/7--6---9---12\----|
A|---5--x--5--------x---------x------------|
E|-----------------------------------------|

e|-------------------------10-------------------------|
B|-------------8--10----11-11--------11h13-11---------|
G|-------------7--9-----10-10--------10----10-10------|
D|-------------9--11----12-----------12----------12---|
A|-0-5/7--x--7-7--9--x--10----x--10-------------------|
E|----------------------------------------------------|
 
    DM7        B7                          Em7
e|---7----5--------7---------7----------------------------|
B|---5----5--7--7--7------10-10-----------------7h8-7-----|
G|---6----6--6--8---------8---------------------7---7-7---|
D|-----------7--7---------7---------------------9-------9-|
A|-5---x--5-------------------------0-5/7--x--7-7---------|
E|--------------7----x--7--------x------------------------|

e|---------------------|
B|---7------7------7---|
G|---6------6------6---|
D|---7------7------7---|
A|-0---x--0---x--0-----|
E|---------------------|


Chords:
   DM7   DM7/B   CM7/C#   F#7   Bm   Em   A2   D   Dsus
e|-------------------------2-----2-------------2-----3---|
B|--7-----7-------5--------2-----3-------------3-----3---|
G|--6-----6-------4--------3-----4---------2---2-----2---|
D|--7-----7-------5--------2-----4----2----2-------------|
A|--5-------------4--------4-----2----2------------------|
E|--------7----------------2-----------------------------|

Pluck or strum these chords ^

Verse 1:
DM7-DM7/B-CM7/C# F#7
Ok go, go hang your heart on, any tree, 
Bm                                  Em
You can make yourself available to anybody, 
Bm                                 Em-F#7
Cause every livin' person knows you are a prize,
    Bm                  Em 
Whichever way you go I'll be easy to find, 
Em                            A2            D-Dsus
I don't ask for much, just be honest, with me 
Em                               A2         D-Dsus
I don't ask for much, just be honest with me 

Verse 2: Repeat Chords
Think of this song as a promise you can do what you want, 
If you decide you wanna move into a new stage, 
Deleting me from pages in your mission statement, 
My love is unconditional, make no mistake, 
I don't ask for much, just be honest, with me, 
I don't ask for much, just be honest, with me, 

Before Ref play this... my own version
e|-7-5-------------|
B|-5-5-8-7-2-3-2---|
G|-5---5-5-0-0-0---|
D|-----------------|
A|---------0---0---|
E|-7---7-----------|

Ref: (Play with the intro as long as you end with the ending)
Who we are, when love is what it wants to be, 
We are free, and we are, having the best day ever by far, 
Being treated to the light, like a superstar 

Verse 3: Same Chords
I can hold space while you see what your heart has to say about me, 
I acknowledge you for what you do to keep strong, 
There's no dotted line to sign away your freedom, 
I'll always stand beside you, don't get me wrong, 
I don't ask for much, just be honest, with me, 

Ref: Repeat Ref chords
Who we are, when love is what it wants to be, 
We are free and, we are, having the best day ever by far, 
Yes we are...

************************************

| /   slide up
| \   slide down
| h   hammer-on
| p   pull-off
| ~   vibrato
| +   harmonic
| x   Mute note
| b   Bend
| pb  Pre-bend
| br  Bend release
| pbr Pre-bend release
| brb Bend release bend
| x   Slap
************************************
Tap to rate this tab
# A B C D E F G H I J K L M N O P Q R S T U V W X Y Z