Song name
# A B C D E F G H I J K L M N O P Q R S T U V W X Y Z

Jason Mraz - Did I Fool Ya tab

Found this on a different site, but wasn't on here, so here ya go...
First tab so if anything is wrong PLEASE COMMENT!!


Jason Mraz
Did I Fool Ya?
Capo 3rd


Intro/Verse:
e-------------3-----------------------------|
B-----5-------2-------3--------1------------|
G-----5------(2)------2--------2------------|
D-----5--------------(2)------(3)-----------|
A----------3-3------------------------------|
E-5-5---x--------x-3-3----x-1-1----x--------|

*pattern here is comparable to Curbside Prophet.

Chorus:
e---------------------------------|
B------1--------3---------1-------|
G------0--------0---------2-------|
D------2--------0---------3-------|
A--3-3---x------------------------|
E-----------3-3----x--1-1----x----|
Tap to rate this tab
 
# A B C D E F G H I J K L M N O P Q R S T U V W X Y Z