Song name
# A B C D E F G H I J K L M N O P Q R S T U V W X Y Z

Jason Mraz - Gypsy Mc tab

Gypsy MC - Jason Mraz

NOTE: This is not Mudhouse/Gypsy MC. This is his original version of Gypsy MC.


I'm not positive on the "Well I'm type A-positive..." section, but what I have should
be close, if not correct. Excluding any typing errors I made, everything else should
be accurate. Watch the YouTube video for strumming patterns. Leave any needed
corrections in the comments and enjoy.


This tab is written according to this performance:
http://www.youtube.com/watch?v=Y6j9o_bohfw

Tuning: Standard (capo 2nd fret)

( ): optional embellishments

Intro:
e------0------5--------|
B------0------5-(0)----|
G------1------6--------| (play 2x)
D------4------7--------|
A------2------7--------|
E------0------5--------|

I'd like to give a shout out...
------0------5--------|
------0------5--------|
------1------6--------| (play 3x)
------4------7--------|
------2------7--------|
------0------5--------|


I dare you to dream the way that I believe...
------5------x------5------5------x------5------3------0------|
------5------5------3------5------5------3------1------0------|
------5------7------0------5------7------0------0------2------|
------5------5------4------5------5------4------2------0------|
------x------7------5------x------7------5------3------2------|
------5--------------------5---------------------------0------|


You gotta know your name before you play the game...
------0------5--------|
------0------5--------|
------1------6--------| (play 2x)
------4------7--------|
------2------7--------|
------0------5--------|


You know my fidelity's gold...
------5------x------5------5------x------5------x------3------0------|
------5------5------3------5------5------3------2------1------0------|
------5------7------0------5------7------0------2------0------2------|
------5------5------4------5------5------4------2------2------0------|
------x------7------5------x------7------5------4------3------2------|
------5--------------------5----------------------------------0------|


This is proof. My own story's a spoof...
------0------5--------|
------0------5--------|
------1------6--------|
------4------7--------|
------2------7--------|
------0------5--------|


pay your toll at the booth and move on....
------5------x------5------5------x------5------3------0------|
------5------5------3------5------5------3------1------0------|
------5------7------0------5------7------0------0------2------|
------5------5------4------5------5------4------2------0------|
------x------7------5------x------7------5------3------2------|
------5--------------------5---------------------------0------|


Pre-verse (no words)
------0------5--------|
------0------5-(0)----|
------1------6--------|
------4------7--------|
------2------7--------|
------0------5--------|


True or false; I can be a sensitive man...
------0------5--------|
------0------5--------|
------1------6--------| (play 3x)
------4------7--------|
------2------7--------|
------0------5--------|


But people with egos...
------5------x------5------x------3------x------3------x------3------|
------5------5------3------2------1------2------1------2------1------|
------5------7------0------2------0------2------0------2------0------|
------5------5------4------2------2------2------2------2------2------|
------x------7------5------4------3------4------3------4------3------|
------5--------------------------------------------------------------|


And I say fame, fame is...
------10-----0------x------x------x-------------10-----0------x------x------x------|
------8------7------8------7------5----5---7----8------7------8------7------5------|
------0------0------7------0------0-------------0------0------7------0------0------|
------0------7------5------x------x-------------0------7------5------x------x------|
------7------6------7------5------3----3---5----7------6------7------5------3------|
------8------7----------------------------------8------7---------------------------|

------10-----0------x-------------x------3------x------3------x------3------0------|
------8------7------8------7------2------1------2------1------2------1------0------|
------0------0------7------0------2------0------2------0------2------0------2------|
------0------7------5------x------2------2------2------2------2------2------0------|
------7------6------7------5------4------3------4------3------4------3------2------|
------8------7--------------------------------------------------------------0------|


It's truuuuuuueeeeeee...
------0------5--------|
------0------5-(0)----|
------1------6--------| (play 2x)
------4------7--------|
------2------7--------|
------0------5--------|


Well I'm type A-positive...
--------x--------0--------0--------x--------0--------0--------|
--------5--------0--------0--------5--------0--------0--------|
--------7--------0--------0--------7--------0--------0--------|
--------5--------0--------0--------5--------0--------0--------|
--------7--------7--------9--------7--------7--------9--------|
-----------------8--------10----------------8--------10-------|


Despite everything that you've heard, I'll admit that most are true...
------0------5--------|
------0------5--------|
------1------6--------| (play 2x)
------4------7--------|
------2------7--------|
------0------5--------|


freeeeeeeeee. I'm free...
------5------x------5------5------x------5------5------x------5------3------|
------5------5------3------5------5------3------5------5------3------1------|
------5------7------0------5------7------0------5------7------4------0------|
------5------5------4------5------5------4------5------5------0------2------|
------x------7------5------x------7------5------x------7------5------3------|
------5--------------------5--------------------5---------------------------|

----------------------|
------1---3---5---7---|
----------------------|
----------------------|
------3---3---3---5---|
----------------------|


Fame, fame is...
------10-----0------x------x------x-------------10-----0------x------x------x---------------|
------8------7------8------7------5----5---7----8------7------8------7------5----5----7-----|
------0------0------7------0------0-------------0------0------7------0------0---------------|
------0------7------5------x------x-------------0------7------5------x------x---------------|
------7------6------7------5------3----3---5----7------6------7------5------3----3----5-----|
------8------7----------------------------------8------7------------------------------------|

------10-----0------x-------------x------3------x------3------x------3------0------|
------8------7------8------7------2------1------2------1------2------1------0------|
------0------0------7------0------2------0------2------0------2------0------2------|
------0------7------5------x------2------2------2------2------2------2------0------|
------7------6------7------5------4------3------4------3------4------3------2------|
------8------7--------------------------------------------------------------0------|


It's truuuuuuueeeeeee...
------0------5--------|
------0------5--------|
------1------6--------|
------4------7--------|
------2------7--------|
------0------5--------|


to me, the gypsy...
------0------5----------0------|
------0------5----------0------|
------1------6----------1------|
------4------7----------2------|
------2------7----------2------|
------0------5----------0------|
Tap to rate this tab
 
# A B C D E F G H I J K L M N O P Q R S T U V W X Y Z