Song name
# A B C D E F G H I J K L M N O P Q R S T U V W X Y Z

Jason Mraz - Mr Curiosity tab

 Piano Intro arranged for Guitar (capo on 3rd fret):
*******************************************************************************
* This is the link for guitar pro version of it:                           *
* www.ultimate-guitar.com/tabs/j/jason_mraz/mr_curiosity_intro_guitar_pro.htm *
*******************************************************************************

  G                 Bm7               Dm                 Am
|-----------3---2-|-----------------|-1-0------------0-|-----------------|
|-----0-----------|-------3---------|-----3------------|---3-1-----------|
|-0-2---0---------|-----4-2---------|-------2--(2)(2)--|-------2---------|
|---------0---0---|---4-------------|-0----------------|-----------------|
|-----------------|-2---------------|------------------|-0-----------2---|
|-3---------------|-----------------|------------------|-----------------|

  Cm                G                 Am                D 
|-3--------------3-|-----------------|-----------3---2-|-------10--------|
|---4-3------------|---3-------------|---------3-------|-----3-10--------|
|-------5----------|-----5-4---------|-2-4-5-----------|---2---11--------|
|----------(5)(5)--|-----------------|-------2---------|-0---------------|
|-3----------------|-----------------|-0-----------3---|-----------------|
|------------------|-3---------------|-----------------|-----------------|

Tap to rate this tab
# A B C D E F G H I J K L M N O P Q R S T U V W X Y Z