Song name
# A B C D E F G H I J K L M N O P Q R S T U V W X Y Z

Jason Mraz - Who Needs Shelter tab

Highlighted       Show chord diagrams
    _________________________________
   / Jason Mraz                     /
  / Who Needs Shelter              /
 / Waiting for My Rocket to Come  /
/________________________________/

 In the song there is 1 picking pattern and 4 strummed chords.
 The picking pattern is played in the verses and interludes. Notice that
the pattern for the E and the C#m7 is excactly the same, as these are two
very similar chords. You can also just play the picking pattern as strummed
chords, that'd be the first three chords I've added in the chord chart.
 The strummed chords are played in the chorus and bridge. Those are the
next 4 chords in the chord chart.
 Capo on 2nd fret

  E & C#m7                   D6maj9
|----2---0-------------0---|----------------------------|
|-------------3----0h3---0-|----0-----------0-----------|
|--------------------------|--------2---0h2---2p0-----0-|
|-4----4----4----4---------|----0-----------------0-----|
|--------------------------|-3----3----3------------3---|
|--------------------------|----------------------------|

   E  D6maj9  C#m7     C#m7   F#   Bm   F#m
---2-----------2---- ---2-----0----0-----0---|
---3----0------3---- ---0-----0----1-----0---|
---2----2------2---- ---2-----1----2-----0---|
---4----0------4---- ---0-----2----2-----2---|
--(5)---3-----(2)--- ---2-----2----0-----2---|
-------------------- ---------0----------0---|



 Intro/Interlude:
| E | D6maj9 | C#m7 | D6maj9 |


 Verse:
| E | D6maj9 | C#m7 | D6maj9 |

| E | D6maj9 |



 Chorus:
| C#m7 | F# | C#m7 | F# |

| C#m7 | F# | C#m7 | F# |



 Interlude

 Verse:
| E | D6maj9 | C#m7 | D6maj9 |

| E | D6maj9 | C#m7 | D6maj9 |


 Chorus


 Bridge:
| Bm | F# | Bm | F# |

| Bm | F# | F#m | F#m |


 Guitar Solo: over Interlude


 Outro-Verse:
| E | D6maj9 | C#m7 | D6maj9 (fade out on D6maj9)


- 14th /August /08
Just mail me at Maitinin@gmail.com with questions, comments and corrections!
Tap to rate this tab
 
# A B C D E F G H I J K L M N O P Q R S T U V W X Y Z