Song name
# A B C D E F G H I J K L M N O P Q R S T U V W X Y Z

Jason Mraz - Boys Gone tab

Highlighted       Show chord diagrams
    _________________________________
   / Jason Mraz                     /
  / The Boy's Gone                 /
 / Waiting for My Rocket to Come  /
/________________________________/

 Chords:
  C#m7  B  Emaj7  G#7sus4  G#    C#m  G#/c  B    F#   A   E7
------------------------------- ------------------------------
------------------------------- --5----4----4----2--------5---
---4----4----4-------6-----5--- --6----5----4----3----6---7---
---2----4----6-------4-----6--- --6----6----4----4----7---6---
---4----2----6----------------- --4----3----2----4----7---7---
-------------0-------4-----4--- -----------------2----5-------

 Main picking pattern:
  C#m7              B                 Emaj7             G#7sus4 G#
|-----------------|-----------------|-----------------|-----------------|
|-----------------|-----------------|-----------------|-----------------|
|-----4-----4-----|-----4-------4---|-----4-----------|-----6-----5-----|
|-----2-----2-----|-----4-------4---|-----------6-----|-----4-----6-----|
|-4-----4-----4---|-2-----2-2-----2-|-----6-----6-----|-----------------|
|-----------------|-----------------|-0-----0-----0---|/4-------4-------|



 Intro:
||: C#m7 | B | Emaj7 | G#7sus4 G# :|| 3x

| C#m7 | B | Emaj7 | Emaj7 |



 Verse:
| C#m7 | B | Emaj7 | G#7sus4 G# |

| C#m7 | B | Emaj7 | G#7sus4 | G# |



 Chorus:
| C#m | G#/c | B | F# |

| A | G#7sus4 G# |

| C#m7 | B | Emaj7 | G#7sus4 | G# |


 Verse


 Chorus:
| C#m | G#/c | B | F# |

| A | G#7sus4 G# |

| C#m7 | B | Emaj7 | G#7sus4 G# |

| C#m | G#/c | B | F# |

| A | A | G#7sus4 | G# |



 Bridge:
||: C#m | E7 | A | G#7sus4 G# :|| 3x

 | C#m | E7 | A | G#7sus4 | G# |


 Chorus:
||: C#m | G#/c | B | F# |

| A | G#7sus4 G# |

| C#m7 | B | Emaj7 | G#7sus4 G# :||


 Outro:
||: C#m7 | B | Emaj7 | G#7sus4 G# :|| 3x (start fading after third round)


- 8th /September /08
Just mail me at Maitinin@gmail.com with questions, comments and corrections!
Tap to rate this tab
# A B C D E F G H I J K L M N O P Q R S T U V W X Y Z