Song name
# A B C D E F G H I J K L M N O P Q R S T U V W X Y Z

Jason Mraz - Unfold Acoustic tab

Help us improve GuitareTab! Take a short survey!
Jason Mraz
Unfold
Drop D & Capo 2nd
by: adam pfister (pfister.adam@students.uwlax.edu)
Notes added : TheJoeyH Show (AlabamaFan34@yahoo.com)

Note: This is tabbed of Unfold by Jason Mraz live at Java Joe's .. so it's probably
different from other versions cause he hardly ever plays anything the exact same way.


Part (1)
e------------------------------------------------------------------------|
B------------------------------------------------------------------------|
G------------7-------------7--7--7---------------------------------------|
D------------7--7----------7--7--7--as many times as you want, then------|
A--5h7--7/9--9--7--2--2/5--5--0--5---------------------------------------|
E--0----0----0--0--0--0----0--0--0---------------------------------------|
	    *
*hold this chord longer the first few times you play through the intro.


              *
e---X-----------------------------------|     Note : On the 2 muted strings, Jason
B---X---------7-------------------------|     mutes those w/ his pinky finger.
G---6-7---11--7---9---7-----------------|     That goes for every time that chord
D---7-7---12--7---7---5-----------------|     is used.
A---4-4---9---9---7---5-----------------|
E---4-4---9---9---7---5-----------------|     *Note : some versions of this song
                                        don't have this chord.
e-----------------------------|
B-----------------------------|
G-------7-------------7-------|
D-------7--7----------7---2x--|
A--7/9--9--7--2--2/5--5-------|
E--0----0--0--0--0----0-------|

Part (2)
e----------X--------------------------------------------------------|
B----------X--------------------------------------------------------|
G--7-7-7---6-7---11---9---7--------7-------------7------------------|
D--7-7-7---7-7---12---7---5--------7--7----------7---back to *------|
A--5-0-5---4-4---9----7---5---7/9--9--7--2--2/5--5------------------|
E--0-0-0---4-4---9----7---5---0----0--0--0--0----0------------------|
       	  *
Part (3)
e--------------------------|
B--------------------------|
G-------7-------------7----|
D-------7--7----------7----|
A--7/9--9--7--2--2/5--5----|
E--0----0--0--0--0----0----|

Part (4)
e---X-----------------------------------------|
B---X-----------------------------------------|
G---6-7---11---9---7--------------------------|
D---7-7---12---7---5--------------------------|
A---4-4---9----7---5--------------------------|
E---4-4---9----7---5--------------------------|

Part (5)
e-------------------------X------------------------|
B-------------------------X------------------------|
G-------7-------------7---6-7---11---9-------------|
D-------7--7----------7---7-7---12---7-------------|
A--7/9--9--7--2--2/5--5---4-4---9----7-------------|
E--0----0--0--0--0----0---4-4---9----7-------------|
   |__________________|
     this section done
	quickly

Part (6)
e-------X------------|
B-------X------------|
G--11---6-7----------|
D--12---7-7----------|
A--9----4-4----------|
E--9----4-4----------|

Part (7)
e-----------|
B-----------|
G--9---7----|
D--7---5----|
A--7---5----|
E--7---5----|
Related for Unfold Acoustic tab