Song name
# A B C D E F G H I J K L M N O P Q R S T U V W X Y Z

Jason Mraz - Ballad Of Floz Kid tab

Ballad Of Flo'z Kid
Standard Tuning
Capo on the 2nd Fret

Part [A] Verse
e-----------|
B-------0---|
G---1---2---|
D---2---2---|
A---2---0---|
E---0-------|

Part [B] Chorus (Last chorus only repeat the first section)
e------------------------|------------------------------------------|
B-------0---1------------|--------0---1---3-------------------------|
G---1---2---0---4---4----|----1---2---0---0-------------------------|
D---2---2---2---5---5----|----2---2---2---4---------2---------------|
A---2---0---3---5---5----|----2---0---3---5-----0h2---2--0-2-0------|
E---0-----------3---2----|----0---------------------------------0---|

Part [C] Bridge
e-------------------|
B---2---1---2---0---|
G---1---2---1---2---|
D---2---2---2---1---|
A---0---0---0---2---|
E-------------------|
Tap to rate this tab
 
# A B C D E F G H I J K L M N O P Q R S T U V W X Y Z