Song name
# A B C D E F G H I J K L M N O P Q R S T U V W X Y Z

Jason Mraz - Love Is Real tab

Help us improve GuitareTab! Take a short survey!
Love is Real by Jason Mraz

tabbed by Spence Thompson

This is a little rendition of the previous tab because I learned the song and felt that 
didn\'t have it completely right.

Tuning: Standard (EADGBe)


The D* means -

e|-------2h3p2-------------|
B|-------3-----------------|
G|-------2-----------------|
D|-------------------------|
A|-------------------------|
E|-------------------------|


A		   D		E	     A
Love is real it is not just in novels or the movies

A		     D			    E
It is fact and it is standing here right in front of you

A		         D*	  E		  A
So if you just open your eyes, oh what a sweet discovery

A			    D		     E
There is hope, and there is joy and there is acceptance

D				E				A
So now let all the light that collects on your plants keep you warm, make you
D*
smile

D			      E			  A		D
And I will be there with this pen in my hand to record all the while

D		      E              @@@@@@@@@@@@READ COMMENT@@@@@@
You\'ll be laughing so loud that the house will shake with sound


@@@@ COMMENT for house will shake with sound@@@
e|---------------2---------|
B|---------------3---------|
G|-------6-------4---------|
D|-----6---6-----4---------|
A|---4-----------2---------|
E|-------------------------|


D			  E			A
And everything will be as new as the day it was found


Filler between Verse

e|---------------------------------------------------------------|
B|------------2---3--2------2----------------0-------------------|
G|---------2-----------2--2-----------2---------2----------------|
D|------2--------------------------1------1--------1-1-----------|
A|---0--------------------------2----------------------2---------|
E|---------------------------------------------------------------|

e|----------------------------------|
B|--------0-----2-0-----------------|
G|----------------------------------|
D|-----3----3-------3---3-----------|   then a D to an E
A|--4----------------------4--------|
E|----------------------------------|

	    A          D	   E		     A
Oh, love is real it is not just in long-distance commercials

A		      D				E
Or something that you thought you felt back in high school

A			 D		   E		    A
So I will turn black and white become that horoscope you\'re reading

A			   D	   E
It predicts that something good is on its way

    D			  E			    A  		    D*
And I\'ll send you all the world green and blue in a box through the mail

D			    E			      A		     D*
You can open it up, hold it right in your hand and be glad that it\'s there

D			E
And be glad that you\'re there

            %%%%%%%%%%%READ COMMENT%%%%%%%%%%%%%
Now you can feel all the knots in your stomach they start to untie


%%%%COMMENT%%%%   start to untie
e|------------------------------------------------|
B|------------------------------------------------|
G|-------6-------6--------------------------------|
D|-------6-------6---------------------------0-0--| The 0 0 goes into the D
A|---4-4-4-4-4-4-4-----2-2-2-2-2-2-2-2------------|
E|------------------------------------------------|

 D		          E			A
And suddenly it\'s not so hard to say you\'re alright


***The A goes into the filler which sounds a note or two different, so I just
play the first filler and it sounds fine****


A			D	   E		A
Oh, love is real it is not just in poetry and stories

A			D		E
It is truth and it will follow you everywhere you go from now on

A				  D		  E			A
So if you just cast all off your doubts then your lips would answer for you

A			D		   E
Oh, my darling when you smile it is like a song

I can hear it now
A - Bm - Cm# - D - E  -- play 8x

I like to end it early on acoustic (after one go as the rest of the song is kinda long 
and if you\'re just playing by yourself then it makes more sense to end it soon.

Furthermore, I can\'t sing next to a D so I go back down to a Bm and finish it  with the 
and end on an A. (just for those that want to sing the song too and don\'t have an 
voice).

Wish you luck and if you want to tab out the small differences between the two fillers, 
my guest.
Related for Love Is Real tab