Song name
# A B C D E F G H I J K L M N O P Q R S T U V W X Y Z

Jason Mraz - Plain Jane tab

Arpeggiate each chord...listen to the song to figure out pattern

swear to freakin god this is right

INTRO
e |-----------0-----0-----3-------0------0------0------0------0------------|
B |-----------1-----0-----0-------3------3------3------3------0------------|
G |-----------2-----1-----0-------2------2------2------2------1------------|
D |-----------2-----0---0------0-------0------0------0--------2------------|
A |-\7--7--0--0----2--------------------------------------2---2------------|
E |--------------4-----3-----2-------1------1------0--------0-0------------|

so simple hearted....
e |-----------0-----0-----3-------0------0-------------0------0--------4---|
B |-----------1-----0-----0-------3------3-------------3------0--------5---|
G |-----------2-----1-----0-------2------2-------------2------1------------|
D |-----------2-----0---0------0-------0-------------0--------2-----6------|
A |-----------0----2--------------------------------------2---2--/7--------|
E |--------------4-----3-----2-------1-------------0--------0-0------------|

what you do remains...
e |-----------0-----0-----3-------0------0-------------0------0--------4---|
B |-----------1-----0-----0-------3------3-------------3------0--------5---|
G |-----------2-----1-----0-------2------2-------------2------1------------|
D |---------2-------0---0------0-------0-------------0--------2-----6------|
A |-------0--------2--------------------------------------2---2--/7--------|
E |--------------4-----3-----2-------1-------------0--------0-0------------|

CHORUS
e |-----------0-----0-----3-------0------0------0------0------0--------4---|
B |-----------1-----0-----0-------3------3------3------3------0--------5---|
G |-----------2-----1-----0-------2------2------2------2------1--------5---|
D |-----------2-----0---0------0-------0------0------0--------2-------6----|
A |--------0--0----2--------------------------------------2---2-----/7-----|
E |--------------4-----3-----2-------1------1------0--------0-0------------|


well your a hero...
e |-----------0-----0-----3-------0------0-------------0------0--------4---|
B |-----------1-----0-----0-------3------3-------------3------0--------5---|
G |-----------2-----1-----0-------2------2-------------2------1------------|
D |-----------2-----0---0------0-------0-------------0--------2-----6------|
A |-----------0----2--------------------------------------2---2--/7--------|
E |--------------4-----3-----2-------1-------------0--------0-0------------|

cause you are more...
e |-----------0-----0-----3-------0------0-------------0------0--------4---|
B |-----------1-----0-----0-------3------3-------------3------0--------5---|
G |-----------2-----1-----0-------2------2-------------2------1------------|
D |---------2-------0---0------0-------0-------------0--------2-----6------|
A |-------0--------2--------------------------------------2---2--/7--------|
E |--------------4-----3-----2-------1-------------0--------0-0------------|

CHORUS
e |-----------0-----0-----3-------0------0------0------0------0----------4-|
B |-----------1-----0-----0-------3------3------3------3------0----------5-|
G |-----------2-----1-----0-------2------2------2------2------1----------5-|
D |-----------2-----0---0------0-------0------0------0--------2--------6---|
A |--------0-------2--------------------------------------2---2------/7----|
E |-------0------4-----3-----2-------1------1------0--------0-0------------|

INTRO (again yes i know...)
e |-----------0-----0-----3-------0------0------0------0------0------------|
B |-----------1-----0-----0-------3------3------3------3------0------------|
G |-----------2-----1-----0-------2------2------2------2------1------------|
D |-----------2-----0---0------0-------0------0------0--------2------------|
A |-\7--7--0--0----2--------------------------------------2---2------------|
E |--------------4-----3-----2-------1------1------0--------0-0------------|

e |-----------0-----0-----3-------0------0------0------0------0------------|
B |-----------1-----0-----0-------3------3------3------3------0------------|
G |-----------2-----1-----0-------2------2------2------2------1------------|
D |-----------2-----0---0------0-------0------0------0--------2------------|
A |-\7--7--0--0----2--------------------------------------2---2------------|
E |--------------4-----3-----2-------1------1------0--------0-0------------|

BRIDGE 
e |-------1----------0---------3--------0----0-----0------0-----0----------|
B |-------1----------3---------3------1-----1-----1------1-----1----6-5-3-0|
G |-------2----------0---------0-------------------------------------------|
D |-------2----------0-------2---------------------------------------------|
A |---3-----------2--------0-------3------2-----0--------------------------|
E |-1----------0--------------------------------------3------1-------------|



e |-3-----------0----0-----0------0-----0---------1------------1----------0|
B |-3---------1-----1-----1------1-----1-----1------------1----------0-----|
G |-0------------------------------------------2------------2----------1---|
D |-2----------------------------------------------------------------------|
A |-3------3------2-----0--------------------------------------------------|
E |-x-------------------------3------1----11-----1-----11-----1----00----0-|

CHORUS x 2
e |-----------0-----0-----3-------0------0------0------0------0-----4--4---|
B |-----------1-----0-----0-------3------3------3------3------0-----5--5---|
G |-----------2-----1-----0-------2------2------2------2------1-----5--5---|
D |-----------2-----0---0------0-------0------0------0--------2-----6--6---|
A |--------0-------2--------------------------------------2---2---/77--7---|
E |-------0------4-----3-----2-------1------1------0--------0-0------------|

OUTRO = INTRO  

e |-----------0-----0-----3-------0------0------0------0------0------------|
B |-----------1-----0-----0-------3------3------3------3------0------------|
G |-----------2-----1-----0-------2------2------2------2------1------------|
D |-----------2-----0---0------0-------0------0------0--------2------------|
A |-\7--7--0--0----2--------------------------------------2---2------------|
E |--------------4-----3-----2-------1------1------0--------0-0------------|


during the outro - hum the chords

holy crap that only took like 2 hours...so enjoy!







Tap to rate this tab
# A B C D E F G H I J K L M N O P Q R S T U V W X Y Z