Song name
# A B C D E F G H I J K L M N O P Q R S T U V W X Y Z

Jason Myles Goss - Twilight Serenade tab

Tabbed by: travis3826
Email:travis3826@hotmail.com

Tuning: Standard

This song is too hard to play at all. A line of x's means strumming the string while muting.
Also sounds good if you just slap the strings.

Comments/Corrections welcome. 

INTRO:

e|-------3--x-x-x--2h3-x--3------x----3-2--x--2h3-----x-x-x-------------|
B|-------3--x-x-x--3---x--3------x----3-3--x--3-------x-x-x-------------|
G|----------x-x-x------x--0------x---------x----------x-x-x-------------|
D|----------x-x-x------x--x------x---------x----------x-x-x-------------|
A|----------x-x-x------x--3------x---------x----------x-x-x-------------|
E|--3-------x-x-x------x---------x---------x-------3--x-x-x-------------|

this part is played throughout the rest of the song

e|---2h3-x--3------x----3-2--x--2h3-----x-x-x---------------------------|
B|---3---x--3------x----3-3--x--3-------x-x-x---------------------------|
G|-------x--0------x---------x----------x-x-x---------------------------|
D|-------x--x------x---------x----------x-x-x---------------------------|
A|-------x--3------x---------x----------x-x-x---------------------------|
E|-------x---------x---------x-------3--x-x-x---------------------------|
Tap to rate this tab
 
# A B C D E F G H I J K L M N O P Q R S T U V W X Y Z