Song name
# A B C D E F G H I J K L M N O P Q R S T U V W X Y Z

Jason Myles Goss - Twilight Serenade tab

This is the corrected version of Travis' earlier tab.
Includes the correction from the comments on that tab,
as well as an attempt to tab the chorus.
e-mail: coopergd(at)slu(dot)edu

INTRO: (travis3826)
e|-------3--x-x-x--2h3-x--3------x----3-2--x--2h3-----x-x-x-------------|
B|-------3--x-x-x--3---x--3------x----3-3--x--3-------x-x-x-------------|
G|----------x-x-x------x--0------x---------x----------x-x-x-------------|
D|----------x-x-x------x--x------x---------x----------x-x-x-------------|
A|----------x-x-x------x--3------x---------x----------x-x-x-------------|
E|--3-------x-x-x------x---------x---------x-------3--x-x-x-------------|


VERSES: (mrmeyers99)
e|--3-------x-x-x--3---x--3-------x----3-2--x--2h3--|
B|--3-------x-x-x--3---x--3-------x----3-3--x--3----|
G|----------x-x-x------x--0-------x---------x-------|
D|----------x-x-x--0h2-x--x-------x---------x-------|
A|----------x-x-x------x--3-------x---------x-------|
E|--3-------x-x-x------x----------x---------x-------|

VARIATION ON VERSUS: i.e. @ "I would give you my wings"
& "Even midnight is burning", etc.
e|-------3--x---3-x-3--x--3-2---x--2h3-|
B|-------3--x---3-x-3--x--3-3---x--3---|
G|----------x-----x----x--------x------|
D|----------x-----x----x--------x------|
A|-------2--x---2-x-3--x--------x------|
E|----------x-----x----x--------x------|

CHORUS: "And this is my twilight serenade"
Note: I'm not sure about the last chord here.
I think the root is an A but not sure, I play a Am
here that sounds ok, but not perfect.
I welcome your comments.
e|-------3----3----3----3----2h3---3----3----0----|
B|-------3----3----3----3----3-----3----3----2----|
G|------------------------------------------------|
D|------------------------------------------------|
A|------------3----2----0---------------3----0----|
E|-------3-------------------------3--------------|
Tap to rate this tab
# A B C D E F G H I J K L M N O P Q R S T U V W X Y Z