Song name
# A B C D E F G H I J K L M N O P Q R S T U V W X Y Z

Jason Myles Goss - Twilight Serenade tab

Tabbed by: travis3826
Standard tuning

Here is the corrected version of my old tab. This is one is much better.
This has the correct bass notes throughout the verses, the different variation of the 
and the chorus!
Turns out there is a different part for the chorus.
Row of x's means slap the strings!

Comments/corrections welcome.

Here are the three parts to the whole song:
Part 1:

e|-----3--x--x--x--|
B|-----3--x--x--x--|
G|--------x--x--x--|
D|--------x--x--x--|
A|--------x--x--x--|
E|--3-----x--x--x--|

e|--3----x--3----x--3--2--x--2h3-----x--x--x--|
B|--3----x--3----x--3--3--x--3-------x--x--x--|
G|-------x-------x--------x----------x--x--x--|
D|--0h2--x-------x--0--0--x--0-------x--x--x--|
A|-------x--3----x--------x----------x--x--x--|
E|-------x-------x--------x-------3--x--x--x--|

e|--3----x--3----x--3--2--x--2h3-----x--x--x--|
B|--3----x--3----x--3--3--x--3-------x--x--x--|
G|-------x-------x--------x----------x--x--x--|
D|--0h2--x-------x--0--0--x--0-------x--x--x--|
A|-------x--3----x--------x----------x--x--x--|
E|-------x-------x--------x-------3--x--x--x--|

e|--3----x--3----x--3--2--x--2h3-----x--x--x--|
B|--3----x--3----x--3--3--x--3-------x--x--x--|
G|-------x-------x--------x----------x--x--x--|
D|--0h2--x-------x--0--0--x--0-------x--x--x--|
A|-------x--3----x--------x----------x--x--x--|
E|-------x-------x--------x-------3--x--x--x--|

e|--3----x--3----x--3--2--x--2h3-----x--x--x--|
B|--3----x--3----x--3--3--x--3-------x--x--x--|
G|-------x-------x--------x----------x--x--x--|
D|--0h2--x-------x--0--0--x--0-------x--x--x--|
A|-------x--3----x--------x----------x--x--x--|
E|-------x-------x--------x-------3--x--x--x--|

e|--3----x--3----x--3--2--x--2h3-----x--x--x--|
B|--3----x--3----x--3--3--x--3-------x--x--x--|
G|-------x-------x--------x----------x--x--x--|
D|--0h2--x-------x--0--0--x--0-------x--x--x--|
A|-------x--3----x--------x----------x--x--x--|
E|-------x-------x--------x-------3--x--x--x--|

e|--3----x--3----x--3--2--x--2h3-----x--x--x--|
B|--3----x--3----x--3--3--x--3-------x--x--x--|
G|-------x-------x--------x----------x--x--x--|
D|--0h2--x-------x--0--0--x--0-------x--x--x--|
A|-------x--3----x--------x----------x--x--x--|
E|-------x-------x--------x-------3--x--x--x--|


Part 2:

e|--3----x--3----x-----2--x--2h3-----x--x--x--|
B|--3----x--3----x-----3--x--3-------x--x--x--|
G|-------x-------x--------x----------x--x--x--|
D|--0h2--x-------x-----0--x--0-------x--x--x--|
A|-------x--3----x--------x----------x--x--x--|
E|-------x-------x--------x-------3--x--x--x--|

e|--3----x--3----x--3--2h3x-------3--x--x--x--|
B|--3----x--3----x--3--3--x-------3--x--x--x--|
G|-------x-------x--------x-------0--x--x--x--|
D|--0h2--x-------x--0--0--x----------x--x--x--|
A|-------x--3----x--------x----------x--x--x--|
E|-------x-------x--------x-------3--x--x--x--|

e|--3----x--3----x-----2--x--2h3-----x--x--x--|
B|--3----x--3----x-----3--x--3-------x--x--x--|
G|-------x-------x--------x----------x--x--x--|
D|--0h2--x-------x-----0--x--0-------x--x--x--|
A|-------x--3----x--------x----------x--x--x--|
E|-------x-------x--------x-------3--x--x--x--|

e|--3----x--3----x-----2h3x-------3--x--x--x--|
B|--3----x--3----x-----3--x-------3--x--x--x--|
G|-------x-------x--------x-------0--x--x--x--|
D|--0h2--x-------x-----0--x----------x--x--x--|
A|-------x--3----x--------x----------x--x--x--|
E|-------x-------x--------x-------3--x--x--x--|

e|--3----x--3----x-----2--x--2h3-----x--x--x--|
B|--3----x--3----x-----3--x--3-------x--x--x--|
G|-------x-------x--------x----------x--x--x--|
D|-------x-------x-----0--x--0-------x--x--x--|
A|--2----x--3----x--------x----------x--x--x--|
E|-------x-------x--------x-------3--x--x--x--|

e|--3----x--3----x-----2--x--2h3-----x--x--x--|
B|--3----x--3----x-----3--x--3-------x--x--x--|
G|-------x-------x--------x----------x--x--x--|
D|--0h2--x-------x-----0--x--0-------x--x--x--|
A|-------x--3----x--------x----------x--x--x--|
E|-------x-------x--------x-------3--x--x--x--|


Chorus:

e|----------3~-----3~-----3~-----2h3----------|
B|----------3~-----3~-----3~---------3--------|
G|-------------------------------------0------|
D|--------------------------------------------|
A|---3~-----2~-----0~-------------------------|
E|------------------------3~-------------3----|

e|---3~-----0~-----3--2h3---------------------|
B|---3~-----0~-----3--3-----------------------|
G|---0~-----0~--------------------------------|
D|-----------------0--0-----------------------|
A|--------------------------------------------|
E|--------------------------------------------|

e|----------3~-----3~-----3~---2---2h3--------|
B|----------3~-----3~-----3~-----3-----3------|
G|--------------------------------------------|
D|--------------------------------------------|
A|---3~-----2~-----0~-------------------------|
E|------------------------3~-------------3----|

e|---3~-----0~-----3--2--x--2h3---------------|
B|---3~-----0~-----3--3--x--3-----------------|
G|---0~-----0~-----------x--------------------|
D|-----------------0--0--x--0-----------------|
A|-----------------------x--------------------|
E|-----------------------x-------3------------|

Last ending part is this

e|--3----x--3----x--3--2h3x-------3~----|
B|--3----x--3----x--3--3--x-------3~----|
G|-------x-------x--------x-------0~----|
D|--0h2--x-------x--0--0--x-------------|
A|-------x--3----x--------x-------------|
E|-------x-------x--------x-------3~----|
Tap to rate this tab
# A B C D E F G H I J K L M N O P Q R S T U V W X Y Z