Song name
# A B C D E F G H I J K L M N O P Q R S T U V W X Y Z

Jason Reeves - Morning Air chords

Highlighted       Show chord diagrams
-----------------------------------------------------------------------------
			 Morning Air - Jason Reeves
-----------------------------------------------------------------------------
Tabbed by: Brad Wall
Email: bawall2@students.nwc.edu

Tuning: Standard

Capo 1

Chords: D#sus2, D#6add9, D#add9, D#sus2sus4

(x)= Optional...


     D#sus2      D#6add9      D#add9       D#sus2sus4

e|-----0------|------0-----|------0------|------0-------|
B|-----3------|------3-----|------3------|------3-------|
G|-----2------|------2-----|------2------|------2-------|
D|-----0------|------0-----|------0------|------0-------|
A|-----0------|------2-----|-----(x)-----|-----(x)------|
E|-----x------|------x-----|------3------|------3-------|

Tap to rate this tab
 
# A B C D E F G H I J K L M N O P Q R S T U V W X Y Z