Jason Reeves - Helium Hearts tab

Standard Tuning, Capo 5. Sounds like it
Tabbed from Jason's Live Stickam, at around 27:50 in the video: 
http://www.jasonreeves.com/news/2ffa99-jasons-recent-chat-on-stickam/

E string has a pulse feel to it, listen to the video for strumming patterns

h = hammer on
x = mute

Intro
----------------------------------------------------------------------0---|
-------0----0-------------------0-------0----------------------3----------|
--------------0h2-------0------------------0h2---------0------------------|
--------------------------------------------------------------------------|
-----------------------------------------------------------3------3-------|
---3-----3----3------3------3-------3------3------3-----------------------|


---------------------------0----------------|
--0----------------3----------0-------------|
--------2h0--------------------------2h0----|
--------------------------------------------|
----3---------3--------3---------3----------|
--------------------------------------------|


Verse

over the lights.. (repeat til next lyrics tab)
---------------|
------0--------|
----------0----|
---------------|
---------------|
--3-----3------|

we're floating away...
---------------|
------0--------|
----------0----|
---------------|
--3-----3------|
---------------|

your lips are mine..
---------------|
------0--------|
----------0----|
---------------|
---------------|
--3-----3------|

your body's a map...
---------------|
------0--------|
----------0----|
---------------|
--3-----3------|
---------------|

cause what you got is all that i ...
---------------|
-----3---------|
------------2--|
---------------|
---------------|
--2-----2------|

want..
----------------------|
-----------3----------|
--------0--------0----|
----0h2---------------|
--3-----------3-----3-|
----------------------|

and stil that's not
---------------|
-----3---------|
------------2--|
---------------|
---------------|
--2-----2------|

enough,enough for us..
----------------------|
-----------3----------|
--------0--------0----|
----0h2---------------|
--3-----------3-----3-|
----------------------|


cause we're on fire..
--0h2----------|
--0------------|
--0------------|
--0------------|
--0------------|
--3------------|

burning wire..
--2------------|
--0------------|
--0------------|
--0------------|
--3------------|
--x------------|

helium hearts..
--0h2----------|
--0------------|
--0------------|
--0------------|
--0------------|
--3------------|

falling skyward.. we're never coming down, down down down..
--2------------|
--0------------|
--0------------|
--0------------|
--3------------|
--x------------|

we're so high..
--0h2----------|
--0------------|
--0------------|
--0------------|
--0------------|
--3------------|

get small and quiet..
burning wire..
--2------------|
--0------------|
--0------------|
--0------------|
--3------------|
--x------------|

every breath just..
--3------------|
--0------------|
--0------------|
--2------------|
--2------------|
--0------------|

makes us lighter..
--3------------|
--0------------|
--0------------|
--0------------|
--3------------|
--x------------|
Tap to rate this tab
 
# A B C D E F G H I J K L M N O P Q R S T U V W X Y Z