Song name
# A B C D E F G H I J K L M N O P Q R S T U V W X Y Z

Jason Reeves - Photographs And Memories tab

Intro:
   G                    Dsus2/F#             Em7
   1 + 2 +  3 +  4  +   1 + 2 +  3 +  4 +    1 + 2 + 3 + 4 +
e|-------10-----------|-------10-----------|-------8p7-------|
B|------------10------|------------10------|-----------8-----|
G|-----0------------0-|---9----------------|-----0---------0-|
D|--------------------|--------------------|-----------------|
A|---------------10---|-9---9----9----9-10-|-7-----------7---|
E|--------------------|--------------------|-----------------|

   D6                C6                G/B
   1 + 2 + 3 + 4 +   1 + 2 + 3 + 4 +   1 + 2 + 3 + 4 +
e|-----7-----------|-------5---------|-------3---------|
B|-----------7-----|-----------5-----|-----------3-----|
G|---------0-----0-|-----0---------0-|-----0---------0-|
D|---0-------------|-----------------|---0-------------|
A|-5-----5-----5---|-3-------3---3---|-2-------2---2---|
E|-----------------|-----------------|-----------------|

   D2
   1 + 2 + 3 + 4 +   1 + 2 + 3 + 4 +   1 +
e|---------0h2-----|-----------------|------~
B|---3-----------3-|-------------3---|------~
G|-----2-----------|---2p0-----0---0-|------~
D|-0-----0-----0---|-0-----0h2-------|------~
A|-----------------|-----------------|-5/10-~
E|-----------------|-----------------|------~


The verses have small variations, but itís not too bad

Tips:
G:  index finger on A string
Dsus2/F#:  index finger on A string, middle on G
Em7:  middle finger behind pinky on e string
D6:  pretty self explanatory
C6:  same as previous, but slid down
G/B:  regular G/B chord
D2:  usual, then hammer on e string for regular D chord

Bridge: just finger pick on these chords
Em7 (/B) C2  G  D/F#
Tap to rate this tab
 
# A B C D E F G H I J K L M N O P Q R S T U V W X Y Z