Song name
# A B C D E F G H I J K L M N O P Q R S T U V W X Y Z

Jason Robert Brown - Stars And The Moon tab

Title: Stars And The Moon
Artist: Jason Robert Brown
Album: Songs For A New World
Transcribed & Tabbed by: Anton Rubisov

Note: this is the tab output from a Guitar Pro tab, and so has its large share of 
issues. I'll be happy to send you the original file in any format - contact me at 
first.last@gmail.com.


E|-0-----0---0---0-------0---|-0-------------------------------|-0-----0---0---0-------0---|
B|-3-----3---3---3-------3---|-3---------------------------3---|-3-----3---3---3-------3---|
G|-0-----0---0---0-------0---|-0-------------------0---2-------|-0-----0---0---0-------0---|
D|-4-----4---4---5-------2---|-2-----------0---2---------------|-4-----4---4---5-------2---|
A|-5-----5---5---5-------3---|-3-------------------------------|-5-----5---5---5-------3---|
E|---------------------------|-----0---3-----------------------|---------------------------|


E|-0-------------------------------|-0-----0---0---0-------0---|-0-------------------------------|
B|-3---------------------------3---|-3-----3---3---3-------3---|-3---------------------------3---|
G|-0-------------------0---2-------|-0-----0---0---0-------0---|-0-------------------0---2-------|
D|-2-----------0---2---------------|-4-----4---4---5-------2---|-2-----------0---2---------------|
A|-3-------------------------------|-5-----5---5---5-------3---|-3-------------------------------|
E|-----0---3-----------------------|---------------------------|-----0---3-----------------------|


E|-0-----0---0---0-------0---|-0-------------------------------|-3---3---3---3---3---3---3---3---|
B|-3-----3---3---3-------3---|-3---------------------------3---|-3---3---3---3---3---3---3---3---|
G|-0-----0---0---0-------0---|-0-------------------0---2-------|-0---0---0---0---0---0---0---0---|
D|-4-----4---4---5-------2---|-2-----------0---2---------------|-4---4---4---4---4---4---4---4---|
A|-5-----5---5---5-------3---|-3-------------------------------|-5---5---5---5---5---5---5---5---|
E|---------------------------|-----0---3-----------------------|---------------------------------|


E|-3---3---3---3---3---3---3---3---|-2---2---2---2---2---2---2---2---|-2---2---2---2---2---2---2---2---|
B|-3---3---3---3---3---3---3---3---|-3---3---3---3---3---3---3---3---|-3---3---3---3---3---3---3---3---|
G|-0---0---0---0---0---0---0---0---|-4---4---4---4---4---4---4---4---|-4---4---4---4---4---4---4---4---|
D|-4---4---4---4---4---4---4---4---|-4---4---4---4---4---4---4---4---|-4---4---4---4---4---4---4---4---|
A|-5---5---5---5---5---5---5---5---|-2---2---2---2---2---2---2---2---|-2---2---2---2---2---2---2---2---|
E|---------------------------------|-2---2---2---2---2---2---2---2---|-2---2---2---2---2---2---2---2---|


E|-3---3---3---3---3---3---3---3---|-3---3---3---3---3---3---3---3---|-0-----0---0---0-------0---|
B|-3---3---3---3---3---3---3---3---|-3---3---3---3---3---3---3---3---|-3-----3---3---3-------3---|
G|-0---0---0---0---0---0---0---0---|-0---0---0---0---0---0---0---0---|-0-----0---0---0-------0---|
D|-0---0---0---0---0---0---0---0---|-0---0---0---0---0---0---0---0---|-4-----4---4---5-------2---|
A|-3---3---3---3---3---3---3---3---|-3---3---3---3---3---3---3---3---|-5-----5---5---5-------3---|
E|-3---3---3---3---3---3---3---3---|-3---3---3---3---3---3---3---3---|---------------------------|


E|-0-------------------------------|-3---3---3---3---3---3---3---3---|-3---3---3---3---3---3---3---3---|
B|-3---------------------------3---|-3---3---3---3---3---3---3---3---|-3---3---3---3---3---3---3---3---|
G|-0-------------------0---2-------|-0---0---0---0---0---0---0---0---|-0---0---0---0---0---0---0---0---|
D|-2-----------0---2---------------|-4---4---4---4---4---4---4---4---|-4---4---4---4---4---4---4---4---|
A|-3-------------------------------|-5---5---5---5---5---5---5---5---|-5---5---5---5---5---5---5---5---|
E|-----0---3-----------------------|---------------------------------|---------------------------------|


E|-2---2---2---2---2---2---2---2---|-2---2---2---2---2---2---2---2---|-3---3---3---3---3---3---3---3---|
B|-3---3---3---3---3---3---3---3---|-3---3---3---3---3---3---3---3---|-3---3---3---3---3---3---3---3---|
G|-4---4---4---4---4---4---4---4---|-4---4---4---4---4---4---4---4---|-0---0---0---0---0---0---0---0---|
D|-4---4---4---4---4---4---4---4---|-4---4---4---4---4---4---4---4---|-0---0---0---0---0---0---0---0---|
A|-2---2---2---2---2---2---2---2---|-2---2---2---2---2---2---2---2---|-3---3---3---3---3---3---3---3---|
E|-2---2---2---2---2---2---2---2---|-2---2---2---2---2---2---2---2---|-3---3---3---3---3---3---3---3---|


E|-3---3---3---3---3---3---3---3---|-0-----0---0---0-------0---|-0-------------------------------|
B|-3---3---3---3---3---3---3---3---|-3-----3---3---3-------3---|-3---------------------------3---|
G|-0---0---0---0---0---0---0---0---|-0-----0---0---0-------0---|-0-------------------0---2-------|
D|-0---0---0---0---0---0---0---0---|-4-----4---4---5-------2---|-2-----------0---2---------------|
A|-3---3---3---3---3---3---3---3---|-5-----5---5---5-------3---|-3-------------------------------|
E|-3---3---3---3---3---3---3---3---|---------------------------|-----0---3-----------------------|


E|-2---2---2---2---2---2---2---2---|-2---2---2---2---2---2---2---2---|-0---0---0---0---0---0---0---0---|
B|-3---3---3---3---3---3---3---3---|-3---3---3---3---3---3---3---3---|-3---3---3---3---3---3---3---3---|
G|-4---4---4---4---4---4---4---4---|-4---4---4---4---4---4---4---4---|-2---2---2---2---2---2---2---2---|
D|-4---4---4---4---4---4---4---4---|-4---4---4---4---4---4---4---4---|-0---0---0---0---0---0---0---0---|
A|-2---2---2---2---2---2---2---2---|-2---2---2---2---2---2---2---2---|-0---0---0---0---0---0---0---0---|
E|-2---2---2---2---2---2---2---2---|-2---2---2---2---2---2---2---2---|---------------------------------|


E|-0---0---0---0---0---0---3---3---|-3-----3---3----3----|-3---3---3----3-----|-2------|
B|-3---3---3---3---3---3---3---3---|-3-----3---3----3----|-3---3---3----3-----|-3------|
G|-2---2---2---2---2---2-----------|-0-----0---0----0----|-0---0---0----0-----|-2------|
D|-0---0---0---0---0---0-----------|-0-----0---0----0----|-0---2---2----2-----|-0------|
A|-0---0---0---0---0---0-----------|-2-----2---2----2----|-2---0---0----3-----|-0------|
E|---------------------------------|-3-----2---2----0----|-0---0---0----0-----|--------|


E|-3------|-3------|-3------|-3------|-3------|-2----2---2---2---2---2----|-2---2---2----2-----|
B|-3------|-3------|-3------|-3------|-3------|-3----3---3---3---3---3----|-3---3---3----3-----|
G|-2------|-2------|-2------|-2------|-2------|-2----2---2---2---2---2----|-2---2---2----2-----|
D|-0------|-0------|-0------|-2------|-2------|-0----0---0---0---0---0----|-0---0---0----0-----|
A|-0------|-0------|-0------|-0------|-0------|-0----0---0---0---0---0----|-0---0---0----0-----|
E|--------|--------|--------|--------|--------|---------------------------|--------------------|


E|------0---0---0---0---0----|-0---0---0----0-----|------0---0---0---0---0----|-0---0---0----0-----|
B|------3---3---3---3---3----|-3---3---3----3-----|------3---3---3---3---3----|-3---3---3----3-----|
G|------2---2---2---2---2----|-2---2---2----2-----|------2---2---2---2---2----|-2---2---2----2-----|
D|------0---0---0---0---0----|-0---0---0----0-----|------0---0---0---0---0----|-0---0---0----0-----|
A|------0---0---0---0---0----|-0---0---0----0-----|------0---0---0---0---0----|-0---0---0----0-----|
E|-3-------------------------|--------------------|-0-------------------------|--------------------|


E|------0---0---0---0---0----|-0---0---0----0-----|------0---0---0---0---0----|-0---0---0----0----3---3---|
B|------3---3---3---3---3----|-3---3---3----3-----|------3---3---3---3---3----|-3---3---3----3----3---3---|
G|------2---2---2---2---2----|-2---2---2----2-----|------2---2---2---2---2----|-2---2---2----2------------|
D|------0---0---0---0---0----|-0---0---0----0-----|------0---0---0---0---0----|-0---0---0----0------------|
A|------0---0---0---0---0----|-0---0---0----0-----|-0----0---0---0---0---0----|-0---0---0----0------------|
E|-3-------------------------|--------------------|---------------------------|---------------------------|


E|-3-----3---3----3----|-3---3---3----3-----|-0---------14--15------|-15-----|-3-----0---0-----|
B|-3-----3---3----3----|-3---3---3----3-----|-1-----------------15--|-15-----|-3-----3---3-----|
G|-0-----0---0----0----|-0---0---0----0-----|-0---------------------|-0------|-2-----2---2-----|
D|-0-----0---0----0----|-0---0---2----2-----|-0---------------------|-0------|-0-----2---2-----|
A|-2-----2---2----2----|-2---2---0----0-----|-3---------------------|-0------|-0-----0---0-----|
E|-3-----2---2----0----|-0---0---0----0-----|-----------------------|--------|-----------------|


E|-0-----0---0---0-------0---|-0-------------------------------|-0-----0---0---0-------0---|
B|-3-----3---3---3-------3---|-3---------------------------3---|-3-----3---3---3-------3---|
G|-0-----0---0---0-------0---|-0-------------------0---2-------|-0-----0---0---0-------0---|
D|-4-----4---4---5-------2---|-2-----------0---2---------------|-4-----4---4---5-------2---|
A|-5-----5---5---5-------3---|-3-------------------------------|-5-----5---5---5-------3---|
E|---------------------------|-----0---3-----------------------|---------------------------|


E|-0-------------------------------|-3------|-3------|-2------|-2------|-3------|-3------|
B|-3---------------------------3---|-3------|-3------|-3------|-3------|-3------|-3------|
G|-0-------------------0---2-------|-0------|-0------|-4------|-4------|-0------|-0------|
D|-2-----------0---2---------------|-4------|-4------|-4------|-4------|-0------|-0------|
A|-3-------------------------------|-5------|-5------|-2------|-2------|-3------|-3------|
E|-----0---3-----------------------|--------|--------|-2------|-2------|-3------|-3------|


E|-0-----0---0---0-------0---|-0-------------------------------|-3------|-3------|
B|-3-----3---3---3-------3---|-3---------------------------3---|-3------|-3------|
G|-0-----0---0---0-------0---|-0-------------------0---2-------|-0------|-0------|
D|-4-----4---4---5-------2---|-2-----------0---2---------------|-4------|-4------|
A|-5-----5---5---5-------3---|-3-------------------------------|-5------|-5------|
E|---------------------------|-----0---3-----------------------|--------|--------|


E|-2------|-2------|-3------|-3------|-0-----0---0---0-------0---|-0-------------------------------|
B|-3------|-3------|-3------|-3------|-3-----3---3---3-------3---|-3---------------------------3---|
G|-4------|-4------|-0------|-0------|-0-----0---0---0-------0---|-0-------------------0---2-------|
D|-4------|-4------|-0------|-0------|-4-----4---4---5-------2---|-2-----------0---2---------------|
A|-2------|-2------|-3------|-3------|-5-----5---5---5-------3---|-3-------------------------------|
E|-2------|-2------|-3------|-3------|---------------------------|-----0---3-----------------------|


E|-2---2---2---2---2---2---2---2---|-2---2---2---2---2---2---2---2---|-0---0---0---0---0---0---0---0---|
B|-3---3---3---3---3---3---3---3---|-3---3---3---3---3---3---3---3---|-3---3---3---3---3---3---3---3---|
G|-4---4---4---4---4---4---4---4---|-4---4---4---4---4---4---4---4---|-2---2---2---2---2---2---2---2---|
D|-4---4---4---4---4---4---4---4---|-4---4---4---4---4---4---4---4---|-0---0---0---0---0---0---0---0---|
A|-2---2---2---2---2---2---2---2---|-2---2---2---2---2---2---2---2---|-0---0---0---0---0---0---0---0---|
E|-2---2---2---2---2---2---2---2---|-2---2---2---2---2---2---2---2---|---------------------------------|


E|-0---0---0---0---0---0---3---3---|-3-----3---3----3----|-3---3---3----3-----|-2------|
B|-3---3---3---3---3---3---3---3---|-3-----3---3----3----|-3---3---3----3-----|-3------|
G|-2---2---2---2---2---2-----------|-0-----0---0----0----|-0---0---0----0-----|-2------|
D|-0---0---0---0---0---0-----------|-0-----0---0----0----|-0---2---2----2-----|-0------|
A|-0---0---0---0---0---0-----------|-2-----2---2----2----|-2---0---0----3-----|-0------|
E|---------------------------------|-3-----2---2----0----|-0---0---0----0-----|--------|


E|-3------|-3------|-3------|-3------|-3------|-2----2---2---2---2---2----|-2---2---2----2-----|
B|-3------|-3------|-3------|-3------|-3------|-3----3---3---3---3---3----|-3---3---3----3-----|
G|-2------|-2------|-2------|-2------|-2------|-2----2---2---2---2---2----|-2---2---2----2-----|
D|-0------|-0------|-0------|-2------|-2------|-0----0---0---0---0---0----|-0---0---0----0-----|
A|-0------|-0------|-0------|-0------|-0------|-0----0---0---0---0---0----|-0---0---0----0-----|
E|--------|--------|--------|--------|--------|---------------------------|--------------------|


E|------0---0---0---0---0----|-0---0---0----0-----|------0---0---0---0---0----|-0---0---0----0-----|
B|------3---3---3---3---3----|-3---3---3----3-----|------3---3---3---3---3----|-3---3---3----3-----|
G|------2---2---2---2---2----|-2---2---2----2-----|------2---2---2---2---2----|-2---2---2----2-----|
D|------0---0---0---0---0----|-0---0---0----0-----|------0---0---0---0---0----|-0---0---0----0-----|
A|------0---0---0---0---0----|-0---0---0----0-----|------0---0---0---0---0----|-0---0---0----0-----|
E|-3-------------------------|--------------------|-0-------------------------|--------------------|


E|------0---0---0---0---0----|-0---0---0----0-----|------0---0---0---0---0----|-0---0---0----0----3---3---|
B|------3---3---3---3---3----|-3---3---3----3-----|------3---3---3---3---3----|-3---3---3----3----3---3---|
G|------2---2---2---2---2----|-2---2---2----2-----|------2---2---2---2---2----|-2---2---2----2------------|
D|------0---0---0---0---0----|-0---0---0----0-----|------0---0---0---0---0----|-0---0---0----0------------|
A|------0---0---0---0---0----|-0---0---0----0-----|-0----0---0---0---0---0----|-0---0---0----0------------|
E|-3-------------------------|--------------------|---------------------------|---------------------------|


E|-3-----3---3----3----|-3---3---3----3-----|-0---------14--15------|-15-----|-3-----0---0-----|
B|-3-----3---3----3----|-3---3---3----3-----|-1-----------------15--|-15-----|-3-----3---3-----|
G|-0-----0---0----0----|-0---0---0----0-----|-0---------------------|-0------|-2-----2---2-----|
D|-0-----0---0----0----|-0---0---2----2-----|-0---------------------|-0------|-0-----2---2-----|
A|-2-----2---2----2----|-2---2---0----0-----|-3---------------------|-0------|-----------0-----|
E|-3-----2---2----0----|-0---0---0----0-----|-----------------------|--------|-----------------|


E|-0------|-3-----0---0-----|-0------|-3-----0---0-----|-0------|-3-----0---0-----|
B|-3------|-3-----3---3-----|-3------|-3-----3---3-----|-3------|-3-----3---3-----|
G|-2------|-2-----2---2-----|-2------|-2-----2---2-----|-2------|-2-----4---2-----|
D|-2------|-0-----2---2-----|-2------|-0-----2---2-----|-2------|-0-----2---2-----|
A|--------|-----------0-----|--------|-----------0-----|--------|-----------0-----|
E|--------|-----------------|--------|-----------------|--------|-----------------|


E|-0------|-3-----0---0-----|-0------|-3-----0---0-----|-0------|-3-----0---0-----|
B|-3------|-3-----3---3-----|-3------|-3-----3---3-----|-3------|-3-----3---3-----|
G|-2------|-2-----4---2-----|-2------|-2-----4---2-----|-2------|-2-----4---2-----|
D|-2------|-0-----2---2-----|-2------|-0-----2---2-----|-2------|-0-----2---2-----|
A|--------|-----------0-----|--------|-----------0-----|--------|-----------0-----|
E|--------|-----------------|--------|-----------------|--------|-----------------|


E|-0------|-3-----0---0-----|-0------|-3-----0---0-----|-0------|-3------|-3------|
B|-3------|-3-----3---3-----|-3------|-3-----3---3-----|-3------|-3------|-3------|
G|-2------|-2-----4---2-----|-2------|-2-----4---2-----|-2------|-2------|-2------|
D|-2------|-0-----2---2-----|-2------|-0-----2---2-----|-2------|-0------|-0------|
A|--------|-----------0-----|--------|-----------0-----|--------|-0------|-0------|
E|--------|-----------------|--------|-----------------|--------|--------|--------|


E|--------|-0-----0---0---0-------0---|-0-------------------------------|-0-----0---0---0-------0---|
B|--------|-3-----3---3---3-------3---|-3---------------------------3---|-3-----3---3---3-------3---|
G|--------|-0-----0---0---0-------0---|-0-------------------0---2-------|-0-----0---0---0-------0---|
D|--------|-4-----4---4---5-------2---|-2-----------0---2---------------|-4-----4---4---5-------2---|
A|--------|-5-----5---5---5-------3---|-3-------------------------------|-5-----5---5---5-------3---|
E|--------|---------------------------|-----0---3-----------------------|---------------------------|


E|-0-------------------------------|-0-----0---0---0-------0---|-0-------------------------------|
B|-3---------------------------3---|-3-----3---3---3-------3---|-3---------------------------3---|
G|-0-------------------0---2-------|-0-----0---0---0-------0---|-0-------------------0---2-------|
D|-2-----------0---2---------------|-4-----4---4---5-------2---|-2-----------0---2---------------|
A|-3-------------------------------|-5-----5---5---5-------3---|-3-------------------------------|
E|-----0---3-----------------------|---------------------------|-----0---3-----------------------|

DOWNTUNE E to D in the pause.

E|-------------|
B|-------------|
G|-------------|
D|-------0-----|
A|-------------|
D|-------0-----|

Tap to rate this tab
# A B C D E F G H I J K L M N O P Q R S T U V W X Y Z