Song name
# A B C D E F G H I J K L M N O P Q R S T U V W X Y Z

Jasper - Lautlos tab

Lautlos – Jasper

Zupfmuster

--Dm---------Am-----Dm--------Am-----Ais--------F-----Ais-------F-----------|
e|-1---1-----0-------1---1-----0------1---------1-----1---------1-----------|
B|-3------3--1-------3------3--1------3--3------1-----3--3------1-----------|
G|-2---------2-------2---------2------3-----3---2-----3-----3---2-----------|
D|-0---------2-------0---------2------3---------3-----3---------3-----------|
A|-----------0-----------------0------1---------3-----1---------3-----------|
E|----------------------------------------------1---------------1-----------|
X2


e|--1----------------------------------------------------------------------|
B|-----1-------------------------------------------------------------------|
G|--------2----------------------------------------------------------------|
D|-----------3-------------------------------------------------------------|
A|--------------3----------------------------------------------------------|
E|-----------------1-------------------------------------------------------|


Strophe 1 (Zupfmuster beibehalten)

        Dm              Am    Dm               Am
Was ihn durch die Dunkelheit, wie auf Flügeln trägt,
Ais       F           Ais                       F
ist sein Herz, das im Rhythmus seiner Schritte schlägt.
Dm            Am         Dm              Am
Er stand oft kurz davor, hätts ihr fast gesagt,
Ais           F            Ais   F
und sich doch nie getraut.

Dm   Am  Dm        Am
Lautlos, durch die Nacht, er geht,
Ais  F   Ais  F
lautlos.
Dm   Am  Dm        Am
Lautlos, durch die Nacht, er geht,
Ais  F   Ais  F
lautlos.

Strophe 2(Kein Zupfen mehr, Akkorde Barré spielen.)

Dm      Am             Dm    Am               Ais
    Das Gartentor gibt nach, langsam tritt er ein,
F                  Ais                 F
die Brombeerheckenstacheln streicheln zärtlich sein Bein.
Dm                Am         Dm          Am
   Er blickt zum Fenster hoch, dort oben brennt noch Licht,
Ais   F             Ais        F
   an was sie wohl grade denkt?


C                          Ais                       F
 Und ganz altmodisch wirft er, Kieselsteinchen gegen ihre,
                             Dm         Am                  C
Fensterscheibe, um zu zeigen: „ich bin hier, ich würd gern bleiben“





                      Ais                            F
Und die Zeilen auf Papier, die sind so Gläsern formuliert,
                            Dm                                Am
das er sie nur ganz leise spricht, damit auch ja kein Wort zerbricht...

(Geigen... zumindest so ungefähr)
--------------------C-------------------Ais-------------F-------------------|
e|------8-------------------------------------------------------------------|
B|---------------8---------6------------------------------------------------|
G|------------------------------7--------5----------------------------------|
D|-------------------------------------------------------7------------------|
A|--------------------------------------------------------------------------|
E|--------------------------------------------------------------------------|
                                     ....hey du da oben, ich liebe dich



Dm   Am  Dm     Am
Laut los, in die Nacht, sie lacht,
Ais  F   Ais  F
Laut los.       ...und er geht
Dm   Am  Dm     Am
Lautlos, in die Nacht, lautlos,
Ais  F
wortlos.
Tap to rate this tab
 
# A B C D E F G H I J K L M N O P Q R S T U V W X Y Z