Song name
# A B C D E F G H I J K L M N O P Q R S T U V W X Y Z

Jasta - Something You Should Know tab

Intro/Chorus
|-------------------------------|
|----------5-------5-------6/8--|
|7-10-7--5---5---5---5---3------|
|-------------------------------|
|-------------------------------|
|-------------------------------| 2x

Verse
|---------------------------------------------------|
|---------------------------------------------------|
|---------------------------------------------------|
|-0---3-0--3-0--3-0--3-0--3-0--0-0-x0-0x-x-0-3--0-6\|
|-0---3-0--3-0--3-0--3-0--3-0--0-0-x0-0x-x-0-3--0-6\|
|-0---3-0--3-0--3-0--3-0--3-0--0-0-x0-0x-x-0-3--0-6\| 4x

Play Chorus

Play Verse
 
            I'll add the pre-chorus later sorry.

Play Chorus

Play Verse  I'll add the solo too.

Play chorus

Play verse



Official Website http://www.jameyjasta.com/
Tap to rate this tab
# A B C D E F G H I J K L M N O P Q R S T U V W X Y Z