Guitaretab - guitar tabs
Song name
# A B C D E F G H I J K L M N O P Q R S T U V W X Y Z

Jatmega - If I Only tab

                  If I Only
By and of Johan Andreas Thorkaas
© Johan Andreas Thorkaas by Norwegian regulations.
Ultimate Guitar got permission to display tab. 

Chords used 
   Am    G     F     Cm    Em  
e|-0-----3-----1-----3-----0----|
B|-1-----0-----1-----1-----0----|
G|-2-----0-----2-----0-----0----|
D|-2-----0-----3-----2-----2----|
A|-0-----2-----3-----3-----2----|
E|-x-----3-----1-----x-----0----|

   Am                   G   F     Am                    G     F
e|-0-----0-----0----0-----3-1-1---0-----0-----0-----0------3--1-----|
B|---1-----1----1-----1---0-1-1-----1-----1-----1-----1----0--1-----|
G|-----2-----2----2-----0-------------2-----2-----2-----0-----------|
D|------------------------------------------------------------------|
A|------------------------------------------------------------------|
E|------------------------------------------------------------------|

   Am                   G   F     Am                    G     F  Am
e|-0-----0-----0----0-----3-1-1---0-----0-----0-----0------3--1--0--|
B|---1-----1----1-----1---0-1-1-----1-----1-----1-----1----0--1--1--|
G|-----2-----2----2-----0-------------2-----2-----2-----0--------2--|
D|------------------------------------------------------------------|
A|------------------------------------------------------------------|
E|------------------------------------------------------------------|

Am                G      Am     
Why did I have to end up here?
Am               G   Am
Feeling nothing, none care.
C            Em      Am 
I donít fear death or pain.
Am                G         Am
I if I only had a reason to stay.

   Am                   G   F     Am                    G     F
e|-0-----0-----0----0-----3-1-1---0-----0-----0-----0------3--1-----|
B|---1-----1----1-----1---0-1-1-----1-----1-----1-----1----0--1-----|
G|-----2-----2----2-----0-------------2-----2-----2-----0-----------|
D|------------------------------------------------------------------|
A|------------------------------------------------------------------|
E|------------------------------------------------------------------|

   Am                   G   F     Am                    G     F  Am
e|-0-----0-----0----0-----3-1-1---0-----0-----0-----0------3--1--0--|
B|---1-----1----1-----1---0-1-1-----1-----1-----1-----1----0--1--1--|
G|-----2-----2----2-----0-------------2-----2-----2-----0--------2--|
D|------------------------------------------------------------------|
A|------------------------------------------------------------------|
E|------------------------------------------------------------------|

Am                 G  Am
Why did it have to be me
Am               G  Am
I just wanted to be free
C                   Em      Am 
They blinded me and took my world
Am                   G            Am 
I no longer hear the sound of the bird




Am           Cm   Cm                         G
But in the night, as the chilling wind blows by.
Am           Cm        Cm       G
I hear the sound of my old lost life.
Am             Cm        Cm          G 
And just for a second my life arenít obscured.
Am          Cm        Cm           G         Am 
A reason to live, the sound of the bird, the bird.

[ Tab from: http://www.guitaretab.com/j/jatmega/175740.html ]
   Am                   G   F     Am                    G     F
e|-0-----0-----0----0-----3-1-1---0-----0-----0-----0------3--1-----|
B|---1-----1----1-----1---0-1-1-----1-----1-----1-----1----0--1-----|
G|-----2-----2----2-----0-------------2-----2-----2-----0-----------|
D|------------------------------------------------------------------|
A|------------------------------------------------------------------|
E|------------------------------------------------------------------|

   Am                   G   F     Am                    G     F  Am
e|-0-----0-----0----0-----3-1-1---0-----0-----0-----0------3--1--0--|
B|---1-----1----1-----1---0-1-1-----1-----1-----1-----1----0--1--1--|
G|-----2-----2----2-----0-------------2-----2-----2-----0--------2--|
D|------------------------------------------------------------------|
A|------------------------------------------------------------------|
E|------------------------------------------------------------------|

Am           G         Am 
Can you live without a goal
Am             G             Am 
A life with no meaning just fall 
C                 Em         Am 
I canít live just praying to die
Am              G           Am 
Cause I have no meanings in life

Am           Cm  Cm                         G
But in the night, as the chilling wind blows by.
Am           Cm        Cm       G
I hear the sound of my old lost life.
Am             Cm        Cm            G 
And just for a second my life arenít obscured.
Am         Cm         Cm           G         Am 
A reason to live, the sound of the bird, the bird.

Am Cm Cm G
Am Cm Cm G

   Am                   G   F      
e|-0-----0-----0----0-----3-1-1--| 
B|---1-----1----1-----1---0-1-1--| 
G|-----2-----2----2-----0--------| 
D|-------------------------------| 
A|-------------------------------| 
E|-------------------------------| 
But why canít I have a reason like others.  

  Am                    G     F
e|-0-----0-----0-----0------3--1-----|
B|---1-----1-----1-----1----0--1-----|
G|-----2-----2-----2-----0-----------|
D|-----------------------------------|
A|-----------------------------------|
E|-----------------------------------|
 Why canít I have a meaning in life.


   Am                   G   F      
e|-0-----0-----0----0-----3-1-1--| 
B|---1-----1----1-----1---0-1-1--| 
G|-----2-----2----2-----0--------| 
D|-------------------------------| 
A|-------------------------------| 
E|-------------------------------| 
If I only had something to live for

  Am                    G     F
e|-0-----0-----0-----0------3--1-----|
B|---1-----1-----1-----1----0--1-----|
G|-----2-----2-----2-----0-----------|
D|-----------------------------------|
A|-----------------------------------|
E|-----------------------------------|
  Might I also catch the sleep



   Am                   G   F     Am                    G     F
e|-0-----0-----0----0-----3-1-1---0-----0-----0-----0------3--1-----|
B|---1-----1----1-----1---0-1-1-----1-----1-----1-----1----0--1-----|
G|-----2-----2----2-----0-------------2-----2-----2-----0-----------|
D|------------------------------------------------------------------|
A|------------------------------------------------------------------|
E|------------------------------------------------------------------|

   Am                   G   F     Am                    G     F  Am
e|-0-----0-----0----0-----3-1-1---0-----0-----0-----0------3--1--0--|
B|---1-----1----1-----1---0-1-1-----1-----1-----1-----1----0--1--1--|
G|-----2-----2----2-----0-------------2-----2-----2-----0--------2--|
D|------------------------------------------------------------------|
A|------------------------------------------------------------------|
E|------------------------------------------------------------------|

End           

Any comments and tip to changes and improvement are warmly welcome. Please use. 
Jatmega@hotmail.com thanks.