Song name
# A B C D E F G H I J K L M N O P Q R S T U V W X Y Z

Jaula De Grillos - Todo Lo Que Tengo tab

intro

  D            F#m           G
e|-----14------12-----------|--------------------------|
B|-------15-----------------|--------------------------|
G|-----------------------14~|~~~~~~~~~~~~~~~~~~~~~~~~~-|
D|--------------------------|--------------------------|
A|--------------------------|--------------------------|
E|--------------------------|--------------------------|

  D            F#m           G
e|-----14------12-----------|------------------14------|
B|-------15-----------------|--------------------------|
G|-----------------------14~|~~~~~~~~~~~~~~~~~~~-------|
D|--------------------------|--------------------------|
A|--------------------------|--------------------------|
E|--------------------------|--------------------------|

2da guitarra(en intro y estrofa)
   D            F#m           G
e|--------------------------|--------------------------|
B|--------------------------|--------------------------|
G|-7--7--7-77-7-------------|--------------------------|
D|-7--7--7-77-74--4--4-44-4-|-5--5--5-55-55--5--5-55-5-|
A|-5--5--5-55-54--4--4-44-4-|-5--5--5-55-55--5--5-55-5-|
E|-------------2--2--2-22-2-|-3--3--3-33-33--3--3-33-3-|

D         F#m         G
 Regalo pedazos de mi alma
                  D
cumplida en mil batallas
       F#m             G
en las que siempre perdí
e|-----14------12-----------|------------------14------|
B|-------15-----------------|--------------------------|
G|-----------------------14~|~~~~~~~~~~~~~~~~~~~-------|
D|--------------------------|--------------------------|
A|--------------------------|--------------------------|
E|--------------------------|--------------------------|

(esta estrofa se añade el punteo de la intro)
D          F#m          G
 Regalo mi voz y mi esperanza
                    D
a quien quiera escucharla
     F#m         G
sólo para ser feliz.

pre-estribillo
  A                          Bm                 A
e|--------------------------|--------------------------|
B|--------------------------|--------------------------|
G|--------------------------|--------------------------|
D|-7--7--7-77-77--7--7-77-7-|-9--9--9-99-99--9--7-77-7-|
A|-7--7--7-77-77--7--7-77-7-|-9--9--9-99-99--9--7-77-7-|
E|-5--5--5-55-55--5--5-55-5-|-7--7--7-77-77--7--5-55-5-|

  G                          G5
e|--------------------------|-3------------------------|
B|--------------------------|-3------------------------|
G|--------------------------|-X------------------------|
D|-5--5--5-55-55--5--5-55-5-|-5------------------------|
A|-5--5--5-55-55--5--5-55-5-|-5------------------------|
E|-3--3--3-33-33--3--3-33-3-|-3------------------------|
A               Bm
 Y regalo mi inocencia,
           A     G
si queda algo de ella
                  G5
Después de un año gris.


estribillo:
  D            F#            Bm           G
e|--------2-----------2-----|-------2-----------5------|
B|----3------3-----2-----2--|----3-----3-----3-----3---|
G|--------------3-----------|-4------------------------|
D|-0------------------------|-------------0------------|
A|--------------------------|--------------------------|
E|--------------------------|--------------------------|

  D            F#            Bm           G
e|--------2-----------2-----|-------2--------5---------|
B|----3------3-----2-----2--|----3-----3--------7------|
G|--------------3-----------|-4--------------------7---|
D|-0------------------------|-------------0------------|
A|--------------------------|--------------------------|
E|--------------------------|--------------------------|

  D            F#            Bm           G
e|--------2-----------2-----|-------2-----------5------|
B|----3------3-----2-----2--|----3-----3-----3-----3---|
G|--------------3-----------|-4------------------------|
D|-0------------------------|-------------0------------|
A|--------------------------|--------------------------|
E|--------------------------|--------------------------|

  D            F#            Bm           G
e|--------2-----------2-----|-------2-----------5------|
B|----3------3-----2-----2--|----3-----3-----3-----3---|
G|--------------3-----------|-4------------------------|
D|-0------------------------|-------------0------------|
A|--------------------------|--------------------------|
E|--------------------------|--------------------------|

la 2da es en quintas con el mismo ritmo que el resto de la canción

               D            F#
Y todo lo que tengo es para ti
          Bm
cada sentimiento
      G               D
cada parte que hay en mí
     F#         Bm
Lo mejor y lo peor
     G                D          F#
te regalo todo lo que tengo para ti
           Bm
Una vida entera
       G           D
de principio hasta fin
       F#         Bm
cada error y solución
          G
Te regalo todo

intro de nuevo y seguir con la primera estrofa y el preestribillo

Regalo las tres de la mañana
en estas dos semanas
que he vivido sin vivir

Y regalo mi paciencia
eterna y pasajera
que busca dónde ir

Y todo lo que tengo es para ti
Cada sentimiento
Cada parte que hay en mí
Lo mejor y lo peor
Te regalo todo lo que tengo para ti
Una vida entera de principio hasta fin
cada error y solución
Te regalo todo

solo:

  D            F#            Bm           G
e|--------------------------|--------------------------|
B|----7-----7-----7-----7---|----8-----8--10-10-10-11-10-7-|
G|-7-----7-7--76-----6-6--6-|-7-----7-7--7-------------|
D|--------------------------|--------------------------|
A|--------------------------|--------------------------|
E|--------------------------|--------------------------|

  D            F#            Bm           G
e|--------------------------|--------------------------|
B|----7-----7-----7-----7---|----8-----8--55577788810101010-|
G|-7-----7-7--76-----6-6--6-|-7-----7-7--7-------------|
D|--------------------------|--------------------------|
A|--------------------------|--------------------------|
E|--------------------------|--------------------------|

2da guitarra igual que el estribillo

estribillo solo percusion:

Y todo lo que tengo es para ti
Cada sentimiento
Cada parte que hay en mí
Lo mejor y lo peor
Te regalo todo

aqui repetir el riff del estribillo

Y todo lo que tengo es para ti
Una vida entera de principio hasta fin
cada error y solución
Te regalo todo
Te regalo todo
Te regalo todo

coda:
  D                                        D5
e|--------------------------|--------------5-----------|
B|--------------------------|--------------X-----------|
G|-7--7--7-77-77--7--777777-|-7--7--777777-7-----------|
D|-7--7--7-77-77--7--777777-|-7--7--777777-7-----------|
A|-5--5--5-55-55--5--555555-|-5--5--555555-5-----------|
E|--------------------------|--------------------------|
Tap to rate this tab
# A B C D E F G H I J K L M N O P Q R S T U V W X Y Z