Song name
# A B C D E F G H I J K L M N O P Q R S T U V W X Y Z

Jauns Meness - If Youre Gonna Be A Hero tab

Help us improve GuitareTab! Take a short survey!
Verse:
1X
   G                  D                   Em               C
e|-----------3--------2---------------------------------------------------|
B|---------0----0-----3------3-----3------3-----0-----0----0h1--1--1--0---|
G|-----0-----------0--2------2-----2----------0-----0---0--0----0--0--0---|
D|--------------------0----0----0-----0-----------------------------------|
A|-2-------------------------------------------------------3--------------|
E|-3--------------------------------------0-------------------------------|

1X
   G                  D                   Em             C
e|-----------3--------2-------------------5-------------------------------|
B|---------0----0-----3------3-----3--------3---3---3----0h1--1--1--0-----|
G|-----0-----------0--2------2-----2----------0---0------0----0--0--0-----|
D|--------------------0----0----0-----0-----------------------------------|
A|-2-----------------------------------------------------3----------------|
E|-3--------------------------------------0-------------------------------|

Chorus:
2X   
  G                D              C          Em
e|----3------------2-2---2---2-2--0--0--0--0-----------------|
B|----0------------3-3---3---3-3--1--1--1--1-----------------|
G|-0--0-0--0--0-0--2-2---2--------0--0--0--0-----------------|
D|-0--0-0--0--0-0--0-0---0--------2--2--2--2------2---0---2--|
A|-2----2--2--2-2-----------------3--3--3--3----2------------|
E|-3----3--3--3-3-----------------------------0--------------|

Solo:

3X
e|-------------------3---3---5---5-------------------------|
B|-1---1/--3~~~~--3-------------------3---3---1---0-1-0-1--|
G|--------------------------------------------0---0-0-0-0--|
D|---------------------------------------------------------|
A|---------------------------------------------------------|
E|---------------------------------------------------------|
Related for If Youre Gonna Be A Hero tab