Song name
# A B C D E F G H I J K L M N O P Q R S T U V W X Y Z

Javier Navarrete - Pans Labyrinth tab

e|--0-----------0--1--0--------------------------------------------------|
B|-----3--1--3-----------------------------------------------------------|
G|-----------------------------------------------------------------------|
D|-----------------------------------------------------------------------|
A|-----------------------------------------------------------------------|
E|-----------------------------------------------------------------------|


e|--0-----------0--1-----------------------------------------------------|
B|-----3--1--3--------3--------------------------------------------------|
G|-----------------------------------------------------------------------|
D|-----------------------------------------------------------------------|
A|-----------------------------------------------------------------------|
E|-----------------------------------------------------------------------|

e|-----------------0-----------------------------------------------------|
B|--3--1--0--1--3-----3--------------------------------------------------|
G|-----------------------------------------------------------------------|
D|-----------------------------------------------------------------------|
A|-----------------------------------------------------------------------|
E|-----------------------------------------------------------------------|



e|--0-------0--1----3--0-------------------------------------------------|
B|-----3-----------------------------------------------------------------|
G|-----------------------------------------------------------------------|
D|-----------------------------------------------------------------------|
A|-----------------------------------------------------------------------|
E|-----------------------------------------------------------------------|

Repeat from beginning

e|--0----0--1--3--1----1--3--5--4----1--0--------------------------------|
B|-----------------------------------------------------------------------|
G|-----------------------------------------------------------------------|
D|-----------------------------------------------------------------------|
A|-----------------------------------------------------------------------|
E|-----------------------------------------------------------------------|
Tap to rate this tab
 
# A B C D E F G H I J K L M N O P Q R S T U V W X Y Z