Guitaretab - guitar tabs
Song name
# A B C D E F G H I J K L M N O P Q R S T U V W X Y Z

Javier Navarrete - Long Long Time Ago tab

----------------------------------------------------------------------------
			     Pan's Labyrinth Lullaby - Javier Navarrete
----------------------------------------------------------------------------
Tabbed by: Sergio
Email: arlekin_boi@hotmail.com

Tuning: Standar

OK, this is an instrumental song in piano and violin (I only tabbed the violin). It is 
the soundtrack of the movie Pan's Labyrinth and it won an oscar for the music. Its my 
tab so if you have any corrections please let me know.


e|-------------------------------------------------------------------------|
B|--9--7--5--7--9--10--9~----9--7--5--7--9--10--7~-------------------------|
G|-------------------------------------------------------------------------|
D|-------------------------------------------------------------------------|
A|-------------------------------------------------------------------------|
E|-------------------------------------------------------------------------|

e|-------------------------------------------------------------------------|
B|--9--7--5--7--9--10--9~----10--9~----10--11~--12--10~----10~-------------|
G|-------------------------------------------------------------------------|
D|-------------------------------------------------------------------------|
A|-------------------------------------------------------------------------|
E|-------------------------------------------------------------------------|
[ Tab from: http://www.guitaretab.com/j/javier-navarrete/88070.html ]
e|-------------------------------------------------------------------------|
B|--10--11--13--11~----11--13--14--12~----10--9~---------------------------|
G|-------------------------------------------------------------------------|
D|-------------------------------------------------------------------------|
A|-------------------------------------------------------------------------|
E|-------------------------------------------------------------------------|

e|-------------------------------------------------------------------------|
B|--9--10--11--10~----11--12--13--12~----10--9~----------------------------|
G|-------------------------------------------------------------------------|
D|-------------------------------------------------------------------------|
A|-------------------------------------------------------------------------|
E|-------------------------------------------------------------------------|

e|-------------------------------------------------------------------------|
B|--9--7--5--3--1~---------------------------------------------------------|
G|-------------------------------------------------------------------------|
D|-------------------------------------------------------------------------|
A|-------------------------------------------------------------------------|
E|-------------------------------------------------------------------------|


| ~  let ring
============================================================================
Related for Long Long Time Ago tab