Song name
# A B C D E F G H I J K L M N O P Q R S T U V W X Y Z

Jawbox - Savory tab

Song: Savory
Band: Jawbox
Tabbed by Anthony Guidotti

Guitar 1 is twangy, trebley
Guitar 2 is low, crunchy

Verse--------------------------------------------------\
____________________________________________________   |
|Guitar 1                                           |
|                                                   |
eb|-------------------------------------------------|
Bb|-------------------------------------------------|
Gb|-11-11-11-11-11-11-11-11-11-11-11-11-11-11-11-11-|
Db|-9--9--9--9--9--9--9--9--9--9--9--9--9--9--9--9--|
Ab|-9--9--9--9--9--9--9--9--9--9--9--9--9--9--9--9--|
Eb|-------------------------------------------------|
|                                                   |
|Guitar 2                                           |
|                                                   |
eb|-------------------------------------------------|
Bb|-------------------------------------------------|
Gb|-------------------------------------------------|
Db|-6-----6-----6-----------------------------------|
Ab|-6-----6-----6-----------------------------------|
Eb|-4-----4-----4-----------------------------------|


____________________________________________________
|Guitar 1                                           |
|                                                   |
eb|-11-11-11-11-11-11-11-11-11-11-11-11-11-11-11-11-|
Bb|-9--9--9--9--9--9--9--9--9--9--9--9--9--9--9--9--|
Gb|-8--8--8--8--8--8--8--8--8--8--8--8--8--8--8--8--|
Db|-------------------------------------------------|
Ab|-------------------------------------------------|
Eb|-------------------------------------------------|
|                                                   |
|Guitar 2                                           |
|                                                   |
eb|-------------------------------------------------|
Bb|-------------------------------------------------|
Gb|-9-----9-----9-----------------------------------|
Db|-9-----9-----9-----------------------------------|
Ab|-7-----7-----7-----------------------------------|
Eb|-0-----0-----0-----------------------------------|

Chorus-------------------------------------------------\
____________________________________________________   |
|Guitar 1                                           |
|                                                   |
eb|-------------------------------------------------|
Bb|-------0-----------0-----------0-----------0-----|
Gb|-8--6--4-----6-----8-----4--6--8-----6-----4-----|
Db|-------------------------------------------------|
Ab|-------------------------------------------------|
Eb|-------------------------------------------------|
|                                                   |
|Guitar 2                                           |
|                                                   |
eb|-------------------------------------------------|
Bb|-------------------------------------------------|
Gb|-------------------------------------------------|
Db|-4-----4-----4-----4-----4-----4-----4-----4-----|
Ab|-2-----2-----2-----2-----2-----2-----2-----2-----|
Eb|-4-----4-----4-----4-----4-----4-----4-----4-----|


____________________________________________________
|Guitars 1 and 2                                    |
|                                                   |
eb|-------------------------------------------------|
Bb|-------------------------------------------------|
Gb|-6-----6-----6-----6-----6-----6-----6-----6-----|
Db|-6-----6-----6-----6-----6-----6-----6-----6-----|
Ab|-4-----4-----4-----4-----4-----4-----4-----4-----|
Eb|-------------------------------------------------|
|                                                   |
eb|-------------------------------------------------|
Bb|-------------------------------------------------|
Gb|-9-----9-----9-----9-----9-----9-----9-----9-----|
Db|-9-----9-----9-----9-----9-----9-----9-----9-----|
Ab|-7-----7-----7-----7-----7-----7-----7-----7-----|
Eb|-------------------------------------------------|
|                                                   |
eb|-------------------------------------------------|
Bb|-------------------------------------------------|
Gb|-------------------------------------------------|
Db|-7-----7-----7-----7-----7-----7-----7-----7-----|
Ab|-7-----7-----7-----7-----7-----7-----7-----7-----|
Eb|-5-----5-----5-----5-----5-----5-----5-----5-----|
|                                                   |
eb|-------------------------------------------------|
Bb|-------------------------------------------------|
Gb|-------------------------------------------------|
Db|-9-----9-----9-----9-----9-----9-----9-----9-----|
Ab|-9-----9-----9-----9-----9-----9-----9-----9-----|
Eb|-7-----7-----7-----7-----7-----7-----7-----7-----|


Solo---------------------------------------------------\
____________________________________________________   |
|Guitar 1                                           |
|                                                   |
eb|-------------------------------------------------|
Bb|-------------------------------------------------|
Gb|-------------8b==========b==========b10----------|
Db|-------------------------------------------------|
Ab|-------------------------------------------------|
Eb|-------------------------------------------------|
|                                                   |
eb|-------------------------------11----------------|
Bb|-------------x--x--x--x--------------------------|
Gb|-------------x--x--x--x--13b15-------15b13-------|
Db|-------------x--x--x--x--------------------------| x4
Ab|-------------------------------------------------|
Eb|-------------------------------------------------|
|                                                   |
eb|-------------------------------------------------|
Bb|-------------x--x--x--x--2-----------------------|
Gb|-------------x--x--x--x--4==b==6==b==4-----------|
Db|-------------x--x--x--x--------------------------| x4
Ab|-------------------------------------------------|
Eb|-------------------------------------------------|
|                                                   |
eb|-------------------------------------------------|
Bb|-------------------------------------------------|
Gb|-------------------------------------------------|
Db|-------------------------------------------------|
Ab|-------------------------------------------------|
Eb|-------------------------------------------------|
Tap to rate this tab
# A B C D E F G H I J K L M N O P Q R S T U V W X Y Z