Song name
# A B C D E F G H I J K L M N O P Q R S T U V W X Y Z

Jawbox - Green Glass tab

                  GREEN GLASS
                              As recorded by Jawbox
              (From the 1994 Album FOR YOUR OWN SPECIAL SWEETHEART)

Words and Music by J. Robbins


4/4 time    
     Q - quarter, E - 8th
     Q=100
     (chord names are above the tab)


VERSE

   Cmb5             D7

    E E E E E E Q    E E E E Q  Q
E|-----------------|----------------|
B|------------5----|----------------|
G|----5---7-5---7--|---4-----4--5---|
D|--4---4----------|-3---3-3--------|
A|-----------------|----------------|
E|-----------------|----------------|



CHORUS


    C5                      D5

     E  E  E  E  E  E  Q     E  E  E  E  E  E  Q
E|------------------------|------------------------|
B|------------------------|------------------------|
G|--12-12-12-12-14-12-11--|------------------------|
D|------------------------|-10-10-10-10-12-10-12---|
A|--10-10-10-10-12-10--9--|------------------------|
E|------------------------|------------------------|
Tap to rate this tab
 
# A B C D E F G H I J K L M N O P Q R S T U V W X Y Z