Song name
# A B C D E F G H I J K L M N O P Q R S T U V W X Y Z

Jawbreaker - I Love You So Much Its Killing Us Both tab

-------------------------------------------------------------------------------
			     I Love You... - Jawbreaker
-------------------------------------------------------------------------------
Tabbed by:Joe1039
Email:

Tuning:Standard

Intro          Verse (Heavy PM)
e|-----------|---------------------------------------------------------------|
B|-----------|---------------------------------------------------------------|
G|-6-6-xxxx--|---------------------------------------------------------------|
D|-6-6-xxxx--|--6-6-7-7-2-2-4-4----------------------------------------------|
A|-4-4-xxxx--|--6-6-7-7-2-2-4-4----------------------------------------------|
E|-----------|--4-4-5-5-0-0-2-2----------------------------------------------|

Repeat that x4
Chorus
e|----------------------------------------------------------------------------|
B|----------------------------------------------------------------------------|
G|--6-2-2---------------------------------------------------------------------|
D|--6-2-2-4-4-4-4-7-7-5-5-4-4-4-4---------------------------------------------|
A|--4-0-0-4-4-4-4-7-7-5-5-4-4-4-4---------------------------------------------|
E|--------2-2-2-2-5-5-3-3-2-2-2-2---------------------------------------------|
x2

e|---------------------------------------------------------------------------|
B|---------------------------------------------------------------------------|
G|--66-44-6------------------------------------------------------------------|
D|--66-44-6------------------------------------------------------------------|
A|--44-22-4------------------------------------------------------------------|
E|---------------------------------------------------------------------------|
back to intro/verse

Bridge (keep in mind this is harmonized by another guitar, therefore the are two parts 
it sounds pretty funky, in a good sense, but I just tabbed one)

e|---------------------------------------------------------------------------|
B|---------------------------------------------------------------------------|
G|-6-6-----------------6-6-2-2-4-4-------------------------------------------|
D|-6-6-6-6-7-7-2-2-4-4-6-6-2-2-4-4-------------------------------------------|
A|-4-4-6-6-7-7-2-2-4-4-4-4-0-0-2-2-------------------------------------------|
E|-----4-4-5-5-0-0-2-2-------------------------------------------------------|
x2

Outro
is the last 4 chords of the bridge. Then play B for a while end in C#

I do hear the last bit, the 2nd guitar plays G5 and then C#
Tap to rate this tab
# A B C D E F G H I J K L M N O P Q R S T U V W X Y Z