Song name
# A B C D E F G H I J K L M N O P Q R S T U V W X Y Z

Jawbreaker - Kiss The Bottle tab

"Kiss The Bottle"
Jawbreaker
Etc.
Words and Music by Blake Schwarzenbach

This sounds about right. The other tab floating around pretty much has everything right 
wise. This is just my interpretation of how the intro goes, and what not. Strumming 
isn't shown but with what I put, you should get the idea.

Drop D tuning
PM - Palm Mute
> - Fade Out


Intro
Main Riff
Guitar 1 (6x)
e-----------------------------------------------------------------------------------|
B-----------------------------------------------------------------------------------|
G--0-4-2-0-2-0--0-2-0--0-2-0--0-2-0--4--0-2-0--0-2-0--0-2-0--0-2-0--0-2-0--4/5-3-2--|
D--5-----5------5------5------5---------5------5------5------5------5---------------|
A---------------------------------------3------3------3------3------3---------------|
D-----------------------------------------------------------------------------------|
On 3rd time
Guitar 2 (3x)
e-----------------------------------------------------------------------------------|
B-----------------------------------------------------------------------------------|
G---------------------------------------5-----5------5--5---5------5----5----5------|
D--5-----5------5--5---5------5----5-0--5-----5------5--5---5------5----5----5------|
A--5-----5------5--5---5------5----5-0--3-----3------3--3---3------3----3----3------|
D--5-----5------5--5---5------5----5------------------------------------------------|

NOTE: In a live version of the song I have, Blake replaces every other "2" with a "4" on 
when the riff gets into the the  "0-2-0" repitition.


Verse
Guitar 1 - First time
e--------|
B--------|
G--4~->--|
D--5~->--|
A--------|
E--------|

Verse Riff
Guitar 2
e--------------------------------------------------------------------------------------|
B--------------------------------------------------------------------------------------|
G--------------------------------------------------------------------------------------|
D--5-5-5-5-5-5-5-5-5-5-5-5-2-2-2-2-2-2-2-2-2-2-2-2-2-2-2-2-0-0-0-0-0-0-0-0-0-0-0-0-0-0-|
A--5-5-5-5-5-5-5-5-5-5-5-502-2-2-2-2-2-2-2-2-2-2-2-5-5-3-3-0-0-0-0-0-0-0-0-0-0-0-0-0-0-|
E--5-5-5-5-5-5-5-5-5-5-5-502-2-2-2-2-2-2-2-2-2-2-2-2-2-2-2-0-0-0-0-0-0-0-0-0-0-0-0-0-0-|
PM - - - - - - - - - - - --- - - - - - - - - - - - - - - - - - - - - - - - - - - - - -
   It gets lone - liest at night,    down by the liq - uor store.          Beneath the

Guitar 2 (contd)
e---------------------------------------------|
B---------------------------------------------|
G--5-5-5-5-5-5-5-5-5-5-5-5-5-5-5-5-5-5-5-5-5--|
D--5-5-5-5-5-5-5-5-5-5-5-5-5-5-5-5-5-5-5-5-5--|
A--3-3-3-3-3-3-3-3-3-3-3-3-3-3-3-3-3-3-3-3-3--|
E---------------------------------------------|
   neon sky.                  Our moonlight.

Verse (contd) (Verse Riff)
Six A.M., the floor comes alive with lice.
The pan's dried up so tight.
With hardened beans.
We're hungry.


Verse break - Chords
   G  G/F# E   D   C  C/B
e-------------------------|
B-------------------------|
G------------------5---5--|
D--5---5---2---0---5---5--|
A--5---5---2---0---3---2--|
E--5---4---2---0----------|

G    G/F#     E               D
         So I lean on you sometimes.
        C   C/B
Just to see you're still there.


Verse (Verse Riff)
Your feet can't take the weight of one.
Much less two.
We hit concrete.


Pre-Chorus
   E         G         C
e--------------------------------------|
B--------------------------------------|
G----------------------5-5-5-4-5-4-4-4-|
D--2-2-2-2-2-5-5-5-5-5-5-5-5-5-5-5-5-5-|
A--2-2-2-2-2-5-5-5-5-5-3-3-3-3-3-3-3-3-|
E--2-2-2-2-2-5-5-5-5-5-----------------|
 How were we born into this mess?
PM-(E        G             A        C)
    I know I painted you a prettier picture, baby.
E           G            C
But we were run out on a rail.
PM-(E             G            A     C)
    Fell from the wagon to the night train.

End on G
Tap to rate this tab
# A B C D E F G H I J K L M N O P Q R S T U V W X Y Z