Song name
# A B C D E F G H I J K L M N O P Q R S T U V W X Y Z

Jaws - Gold tab

---------------------------------------------------------------------------
                             GOLD - Jaws
---------------------------------------------------------------------------
Tabbed by: AtomsForPizza


Tuning: standard

Here's my tab for Gold by Jaws. Some of the bits in the chorus are best played by ear, I 
may not have got the number of notes played exactly right. Get your chorus pedal out 
and enjoy.

http://www.youtube.com/watch?v=amVROHMgHlM

(/) Slide Up

Guitar  1 (Connor) - Intro and verses
e|-------------------------------------------------|
B|----------------------------0----------------0---|
G|---------0---------------------0-----------------|
D|------9-----------12--------------------5--------|
A|---7---------10--------5---------5--3------------|
E|-------------------------------------------------|

e|----------------------------0----------------0---|
B|-------------------------------0-----------------|
G|---------0---------------------------------------|
D|------9-----------12--------------------5--------|
A|---7---------10--------5---------5--3------------|
E|-------------------------------------------------|

e|-------------------------------------------------|
B|----------------------------0---------------0----|
G|---------0---------------------0-----------------|
D|------9-----------12--------------------5--------|
A|---7---------10--------5---------5--3------------|
E|-------------------------------------------------|

e|--------------------------0----------------------|
B|--------------------------0----------------------|
G|-----------0--------------0----------------------|
D|--------9----------12-----5----------------------|
A|-----7---------10---------3----------------------|
E|-------------------------------------------------|



Guitar 2 (Alex) - Riff
e|--------------------------------------------------------------------------|
B|--------------------------------------------------------------------------|
G|----12--11------12--11------12--11------12--11------12--11----------------|
D|------------12----------12----------12----------12----------12------------|
A|--------------------------------------------------------------------------|
E|--------------------------------------------------------------------------|

Guitar 2 (Alex) - Chorus
e|----------------------------------------------------------------------|
B|----------------------------------------------------------------------|
G|--11--11--11--11--11--12--11--11--11--11--11--12--12------------------|
D|----------------------------------------------------------------------|x2
A|----------------------------------------------------------------------|
E|----------------------------------------------------------------------|

e|----------------------------------------------------------------------|
B|----------------------------------------------------------------------|
G|--12--11------11--12--11------12--11------11--12--11------------------|
D|----------12--------------12----------12--------------12--------------|
A|----------------------------------------------------------------------|
E|----------------------------------------------------------------------|

e|----------------------------------------------------------------------|
B|----------------------------------------------------------------------|
G|--11--11--11--11--11--12--16--12--11--12------------------------------|
D|----------------------------------------------------------------------|x2
A|----------------------------------------------------------------------|
E|----------------------------------------------------------------------|

e|----------------------------------------------------------------------|
B|----------------------------------------------------------------------|
G|--12--11------11--12--11------12--11------11--12--11------------------|
D|----------12--------------12----------12--------------12--------------|
A|----------------------------------------------------------------------|
E|----------------------------------------------------------------------|

Guitar 2 (Alex)- Bridge (02:38)
e|----------------------------------------------------------------------|
B|----------------------------------------------------------------------|
G|-----------12--11-----------------------12--11------------------------|
D|---12/16-----------12-----------12/16-----------12--------------------|
A|----------------------------------------------------------------------|
E|----------------------------------------------------------------------|
Tap to rate this tab
 
# A B C D E F G H I J K L M N O P Q R S T U V W X Y Z