Song name
# A B C D E F G H I J K L M N O P Q R S T U V W X Y Z

Jaws - Stay In tab

Be warned that the riff does change later in the song, for the first half of the song 
this is correct.


E|--------------|
B|--------------|
G|--------------|
D|--------9--9--|
A|-----8-----8--|
E|--7--------7--|



E|--------------------------------------------------------------------|
B|--------------------------------------------------------------------|
G|--------------------------------------------------------------------|
D|----4--4--2--0-----4-4-2-0---4-4-2-0-----4-4-2-0--------------------|
A|----2--------------2-----2---2-----------2--------------------------|
E|-3-------------3-3---------3---------3-3----------------------------|

        (Em7)
E|---------------------------------------------------------------------|
B|---------------------------------------------------------------------|
G|---------------------------------------------------------------------|
D|-----7---0-----7-7/9/7-----7---0-----7-7/9/7-------------------------|
A|-----5---------5-------5---5---------5-------5-----------------------|
E|-3/7---7---7-7-----------7---7---7-7---------------------------------|
Tap to rate this tab
# A B C D E F G H I J K L M N O P Q R S T U V W X Y Z