Song name
# A B C D E F G H I J K L M N O P Q R S T U V W X Y Z

Jax Panik - Cigarettes Cinnamon Acoustic chords

Highlighted       Show chord diagrams
For the biggest Jax Panik fans I know.
-- Bea Glenister
-- Mikey Wessels.
...ExtdLv PL

-----------------------------------------------------------------------------
		     CIGARETTES & CINNAMON - Jax Panik
-----------------------------------------------------------------------------
Tabbed by: Donovan Martin
Email: donovan17martin@gmail.com
Lyrics: http://www.musicalmover.com/2008/11/06/cigarettes-cinnamon-lyrics/

Tuning: Standard EADGBe

[INTRO]

Repeat x2
e|---------------------------------------------------------------------------|
B|-----7--------7------------------------------------------------------------|
G|---9---9----9---9----9---9-------6---6----4---4----------------------------|
D|-7--------7--------7---7-------7---7----7---7----6-6-5---------------------|
A|-0--------0--------------------0--------0--------4-------------------------|
E|---------------------------------------------------------------------------|


[VERSE 1]

D	     A         F#             E
 In this city of crosses we move like shadows.

D              	 A              F#              E
Let's go all the way all right, let's make dangerous mistakes tonight.

D            A             F#       E
Red eyes and broken hearts, can you handle it?

D                           A                     F#         E
 You know these words don't matter and these promises aren't real.


[CHORUS]

(2nd guitar)
e|-14-12---------12-14-12---------12-14-12---------12-14-12-------12---------|
B|-------10---10----------12---12----------10---10----------12-10------------|
G|---------------------------------------------------------------------------|
D|---------------------------------------------------------------------------|
A|---------------------------------------------------------------------------|
E|---------------------------------------------------------------------------|


E         F#       E         A
Hey baby, pass the remote control

E             F#           E     A
Turn down the voices on the radio.

E              F#            E             F#            E      A
Me and you can do what we've always wanted to, let's get down tonight.



Repeat x1
e|---------------------------------------------------------------------------|
B|-----7--------7------------------------------------------------------------|
G|---9---9----9---9----9---9-------6---6----4---4----------------------------|
D|-7--------7--------7---7-------7---7----7---7----6-6-5---------------------|
A|-0--------0--------------------0--------0--------4-------------------------|
E|---------------------------------------------------------------------------|

[VERSE 2]

D             A                        F#         E
 I drive down empty streets while everybody's asleep.

D                A             F#         E
Why are we still sleep-walking? Hey girl, what were we thinking?

D         A      F#                  E
You're so sweet, baby just move your feet.

D               A         F#                     E
 Cigarettes and cinnamon, honey let's pray for a happy ending.




[CHORUS]

(2nd guitar)
e|-14-12---------12-14-12---------12-14-12---------12-14-12-------12---------|
B|-------10---10----------12---12----------10---10----------12-10------------|
G|---------------------------------------------------------------------------|
D|---------------------------------------------------------------------------|
A|---------------------------------------------------------------------------|
E|---------------------------------------------------------------------------|


E         F#       E         A
Hey baby, pass the remote control

E             F#           E     A
Turn down the voices on the radio.

E              F#            E             F#            E      A
Me and you can do what we've always wanted to, let's get down tonight.


[VERSE3]

2nd guitar (repeat throughout verse 3)
e|---------------------------------------------------------------------------|
B|-----7--------7------------------------------------------------------------|
G|---9---9----9---9----------------------------------------------------------|
D|-7--------7----------------------------------------------------------------|
A|---------------------------------------------------------------------------|
E|---------------------------------------------------------------------------|

D                     A
 I sit in traffic for days.

                         F#
Make plans to get out of this place.

E
Dance baby dance!

D                     A
 I sit in traffic for days.

                         F#
Make plans to get out of this place

E
While you still have a chance!

D              A
 I'll pay good money for romance.

F#                   E
Turn down the lights, I really don't mind.

D              A
 I'll pay good money for romance

    F#                      E
Coz I'm still waiting for a love that never comes.


CHORUS

(2nd guitar)
e|-14-12---------12-14-12---------12-14-12---------12-14-12-------12---------|
B|-------10---10----------12---12----------10---10----------12-10------------|
G|---------------------------------------------------------------------------|
D|---------------------------------------------------------------------------|
A|---------------------------------------------------------------------------|
E|---------------------------------------------------------------------------|


E         F#       E         A
Hey baby, pass the remote control

E             F#           E     A
Turn down the voices on the radio.

E              F#            E             F#            E      A
Me and you can do what we've always wanted to, let's get down tonight.


[OUTRO]

D                 A
 Don't think just dance with me baby.

F#                E
 Don't think just dance with me.

F#
 Don't think.

E
Dance with me!
Tap to rate this tab
# A B C D E F G H I J K L M N O P Q R S T U V W X Y Z