Guitaretab - guitar tabs
Song name
# A B C D E F G H I J K L M N O P Q R S T U V W X Y Z

Jay Brannan - Half Boyfriend tab

Tuning:Standard
Capo on fret 2, all fret numbers are the actual numbers, NOT in relation to the capo

I.
Intro/Interludes (not totally correct, but better than anything else available, he plays 
with picking and which cords he plays when, listen to the song)
e|-----------------------------------------------------------------|
B|-9--10---10-----------5---5ó-2--3p2h3p2---9--10------5-----------|
G|-2--2-------2---------2-2----2------------2---2------------------|
D|-----------------------------------------------------------------|
A|-----------------------------------------------------------------|
E|-9--10-10-------------5------2------------9--10------5---5-5-555-|

e|-----------------------------------------------------------------|
B|-9--10---10-----------5---5ó-2--3p2h3p2---9--10-5-----14*----9*--|
G|-2--2--2----2---------2-2----2------------2---2-2-----14*----9*--|
D|------------------------------------------------------14*----9*--|
A|-----------------------------------------------------------------|
E|-9--10----------------5------2------------9--10-5----------------|

II.
Verse, over and over
e|---------------------------------------------------------------|
B|-9--10---------5----ó-3----------9--10---------5----ó----------|
G|-2--2----------2------2----------2--2----------2---------------|
D|---------------------------------------------------------------|
A|---------------------------------------------------------------|
E|-9--10---------5------2----------9--10---------5---------------|
[ Tab from: http://www.guitaretab.com/j/jay-brannan/108207.html ]
III.
Chorus
(you were the pillÖ) (an anti-misan..)   (mine was the heartÖ)
e|---------------------------------------------------------|
B|-9--10----12--14----9--10----12--14----9--10----12--14---|
G|-2--2-----2---2-----2--2-----2---2-----2--2-----2---2----|
D|---------------------------------------------------------|
A|---------------------------------------------------------|
E|-9--10----12--14----9--10----12--14----9--10----12--14---|

  (My one hope was.. that Iíd survive you..)
e|----------------------------------|
B|-10--9---5------------------------|
G|-2---2---2------------------------|
D|----------------------------------|
A|----------------------------------|
E|-10--9---5----5-------------------|

IV.
(as I wander through..)
e|----7--7--7-------4--4--4---------|
B|---0--0--0---0---0--0--0---0------|
G|----------------------------------|
D|--7--7--7---7---4--4--4---4-------|
A|----------------------------------|
E|----------------------------------|
 
Play (I.)
(II.)
I donít know where weíre going
but I know weíve gone too far and
I hope it isnít showing
but I think I love you and
I canít believe youíre leaving
just when I let you in and
when you had me believing
I could feel again
(I.)
(II.)
I could give a million reasons
why we should not be friends
our moods change like the seasons
when my mood ends your mood begins and
youíre a tease, youíre a cockblocker,
youíre a loudmouth bitch, and a big talker,
but thatís okay
youíll grow up someday
(I.)
(II.)
Iíve shown up for you
in ways that boy never would
but I know youíll go back to him and
maybe you should, but
I hope you donít go backwards
cuz Iím going on ahead and
one day youíll wish that you had
stuck with me instead

(III.)
youíre the pill I never wanted to takeó
an anti-misanthrope
mine was the heart I never thought you would break
(IV.)
my one hope was that Iíd survive you

(IV.)
as I wander through union square
I remember when you followed me there
you were the stalker I kinda wanted to have
being your half-boyfriend was only half bad

(I.)
(II.)
[Chorus]
Related for Half Boyfriend tab