Song name
# A B C D E F G H I J K L M N O P Q R S T U V W X Y Z

Jay Brannan - Cant Have It All tab

Tabbed by: simon10


Tuning: Standard
Capo: 6

Intro:
        
                 D                  Bm                  A
     e|--------0----------------------0-------------------0-------|
     B|-----3-----3----------------3-----3-------------2-----2----|
     G|--------2-----2----------4-----4-------------2-----2-------|
[1]  D|-----0-----0----------------4-----4-------------2-----2----|   x2
     A|--------------0----------2-------------------0-------------|
     E|-----------------------------------------------------------|


Verse:

                 D             Bm              A
     e|--------0--------------------------------------------------|
     B|-----3-----3-------------4--------------2------------------|
     G|--------2-----2----------3--------------2------------------|
[2]  D|-----0-----0-------------3--------------2------------------|   x3
     A|--------------0----------2--------------0------------------|
     E|-----------------------------------------------------------|

                 D                  Bm                  A
     e|--------0----------------------0-------------------0-------|
     B|-----3-----3----------------3-----3-------------2-----2----|
     G|--------2-----2----------4-----4-------------2-----2-------|
[1]  D|-----0-----0----------------4-----4-------------2-----2----|   
     A|--------------0----------2-------------------0-------------|
     E|-----------------------------------------------------------|

                 D             Bm              A
     e|--------0--------------------------------------------------|
     B|-----3-----3-------------4--------------2------------------|
     G|--------2-----2----------3--------------2------------------|
[2]  D|-----0-----0-------------3--------------2------------------|   x3
     A|--------------0----------2--------------0------------------|
     E|-----------------------------------------------------------|
 
                 D              G    D   A    A  A
     e|--------0---------------(3)--(2)-(0)--(0)(0)---------------|
     B|-----3-----3-------------3----3---2----2--2----------------|
     G|--------2-----2----------0----2---2----2--2----------------|
[3]  D|-----0-----0-------------0----0---2----2--2----------------|   
     A|--------------0---------(2)-------0----0--0----------------|
     E|-------------------------3---------------------------------|


Pre-Chorus:

           Bm F#m   G  A
     e|----(2)(2)--(3)(0)----|      
     B|-----3--2----3--2-----| 
     G|-----4--2----4--2-----|      
[4]  D|-----4--4----5--2-----| x2   
     A|-----2-(4)--(5)-0-----|      
     E|--------2----3--------|      
 

Chorus:

            D Bm    A  G 
     e|-----2-(2)--(0)(3)----|      
     B|-----3--3----2--3-----| 
     G|-----2--4----2--0-----|      
[5]  D|-----0--4----2--0-----| x3   
     A|--------2----0-(2)----|      
     E|----------------3-----|   

            D Bm       G
     e|-----2-(2)-----(3)----|      
     B|-----3--3-------3-----| 
     G|-----2--4-------0-----|      
[6]  D|-----0--4-------0-----|    
     A|--------2------(2)----|      
     E|----------------3-----|   


Verse:


                 D                  Bm                  A
     e|--------0----------------------0-------------------0-------|
     B|-----3-----3----------------3-----3-------------2-----2----|
     G|--------2-----2----------4-----4-------------2-----2-------|
[1]  D|-----0-----0----------------4-----4-------------2-----2----|   x2
     A|--------------0----------2-------------------0-------------|
     E|-----------------------------------------------------------|


                 D             Bm              A
     e|--------0--------------------------------------------------|
     B|-----3-----3-------------4--------------2------------------|
     G|--------2-----2----------3--------------2------------------|
[2]  D|-----0-----0-------------3--------------2------------------|   x3
     A|--------------0----------2--------------0------------------|
     E|-----------------------------------------------------------|


Pre-Chorus:


           Bm F#m   G  A
     e|----(2)(2)--(3)(0)----|      
     B|-----3--2----3--2-----| 
     G|-----4--2----4--2-----|      
[4]  D|-----4--4----5--2-----| x2   
     A|-----2-(4)--(5)-0-----|      
     E|--------2----3--------| 


Chorus:


          D Bm    A  G 
     e|-----2-(2)--(0)(3)----|      
     B|-----3--3----2--3-----| 
     G|-----2--4----2--0-----|      
[5]  D|-----0--4----2--0-----| x3   
     A|--------2----0-(2)----|      
     E|----------------3-----|


            D Bm       G
     e|-----2-(2)-----(3)----|      
     B|-----3--3-------3-----| 
     G|-----2--4-------0-----|      
[6]  D|-----0--4-------0-----|    
     A|--------2------(2)----|      
     E|----------------3-----|


Bridge:  (D, Bm, A, G) x6


Chorus:


          D Bm    A  G 
     e|-----2-(2)--(0)(3)----|      
     B|-----3--3----2--3-----| 
     G|-----2--4----2--0-----|      
[5]  D|-----0--4----2--0-----| x3   
     A|--------2----0-(2)----|      
     E|----------------3-----|


            D Bm       G
     e|-----2-(2)-----(3)----|      
     B|-----3--3-------3-----| 
     G|-----2--4-------0-----|      
[6]  D|-----0--4-------0-----|    
     A|--------2------(2)----|      
     E|----------------3-----|


Ending:


                 D                  Bm                  A
     e|--------0----------------------0-------------------0-------|
     B|-----3-----3----------------3-----3-------------2-----2----|
     G|--------2-----2----------4-----4-------------2-----2-------|
[1]  D|-----0-----0----------------4-----4-------------2-----2----|   
     A|--------------0----------2-------------------0-------------|
     E|-----------------------------------------------------------|


                 D              G    D   A    A  A
     e|--------0---------------(3)--(2)-(0)--(0)(0)---------------|
     B|-----3-----3-------------3----3---2----2--2----------------|
     G|--------2-----2----------0----2---2----2--2----------------|
[3]  D|-----0-----0-------------0----0---2----2--2----------------|   
     A|--------------0---------(2)-------0----0--0----------------|
     E|-------------------------3---------------------------------|
Tap to rate this tab
 
# A B C D E F G H I J K L M N O P Q R S T U V W X Y Z