Jay Brannan - Lower My Gun tab

I didn't line up the words with the tabs, but if you listen to the song you
 can figure out where it fits in. :D

Intro:
e|-11--7--11-12-11-------------9---7--11--14---------|
B|-12--9--12------12----12-----12--7--12----11--12---|
G|-11--9--11---------------11--11--9--11-------------|
D|-9---6-------------11------------6-----------------|
A|---------------------------------------------------|
E|---------------------------------------------------|


Verse 1:
e|-11--7--11-12-11-------------9---7--11--14---------|
B|-12--9--12------12----12-----12--7--12----11--12---|
G|-11--9--11---------------11--11--9--11-------------|
D|-9---6-------------11------------6-----------------|
A|---------------------------------------------------|
E|---------------------------------------------------|
Well you're just across the table, but we're worlds apart, 
Lookin' back now, it's clear that we weren't so smart, but,

e|-11--7--11--7---9---7--11--14---------|
B|-12--9--12--9---12--7--12----11--12---|
G|-11--9--11--9---11--9--11-------------|
D|-9---6--9---6-------6-----------------|
A|--------------------------------------|
E|--------------------------------------|
You found a lover, Inside this fighter, and we found God
 inside a kick-ass one nighter...

e|-11--7--11-12-11-------------9---7--11--14---------|
B|-12--9--12------12----12-----12--7--12----11--12---|
G|-11--9--11---------------11--11--9--11-------------|
D|-9---6-------------11------------6-----------------|
A|---------------------------------------------------|
E|---------------------------------------------------|

Chorus part 1:
e|-2--0-------0-----2-----------2--0------0-----2---------|
B|-2--0----------4--------------2--0---------4------------|
G|-4--1---------------3-4---4---4--1--------------3-4---4-|
D|-4--2----1--------------------4--2----1-----------------|
A|-2--2-------------------------2--2----------------------|
E|-2--0--0----------------0-----2--0--0---------------0---|
But that was long ago, And I owe you money but Business is slow, 
Sounds kinda funny hey,

e|-2--0-------0-----2-----------2--0------0-----2---------|
B|-2--0----------4--------------2--0---------4------------|
G|-4--1---------------3-4---4---4--1--------------3-4---4-|
D|-4--2----1--------------------4--2----1-----------------|
A|-2--2-------------------------2--2----------------------|
E|-2--0--0----------------0-----2--0--0---------------0---|
There you go, Callin' me honey though I think you know, 
You'll never see me again...

Chorus part 2:
e|--------------------------------------------------------------------|
B|----5-6-----4-3------5-6------4-3------5-6------4-3-----5-6-----4-3-|
G|----6-7-----5-4------6-7------5-4------6-7------5-4-----6-7-----5-4-|
D|--------------------------------------------------------------------|
A|--------------------------------------------------------------------|
E|--7------0-7-----0-7------0-7------0-7------0-7-----0-7------0-7----|
In the same old house, Two different people, Same drops of blood, 
Still light the path, to what used to be us, Hanging in the hallway now,
 Just shreds of paper, and shards of glass...

Verse 2:
e|-11--7--11-12-11-------------9---7--11--14---------|
B|-12--9--12------12----12-----12--7--12----11--12---|
G|-11--9--11---------------11--11--9--11-------------|
D|-9---6-------------11------------6-----------------|
A|---------------------------------------------------|
E|---------------------------------------------------|

e|-11--7--11-12-11-------------9---7--11--14---------|
B|-12--9--12------12----12-----12--7--12----11--12---|
G|-11--9--11---------------11--11--9--11-------------|
D|-9---6-------------11------------6-----------------|
A|---------------------------------------------------|
E|---------------------------------------------------|
Well I'm not in the business, of bursting bubbles, but blowing you now,
 takes more gum than I can chew, well,

e|-11--7--11--7---9---7--11---------|
B|-12--9--12--9---12--7--12---------|
G|-11--9--11--9---11--9--11---------|
D|-9---6--9---6-------6-------------|
A|----------------------------------|
E|----------------------------------|
Don't press, your luck, Unless you want a pity fuck, But I think that'd be 
the wrong way, To hold on to yesterday,

Chorus part 1:
e|-2--0-------0-----2-----------2--0------0-----2---------|
B|-2--0----------4--------------2--0---------4------------|
G|-4--1---------------3-4---4---4--1--------------3-4---4-|
D|-4--2----1--------------------4--2----1-----------------|
A|-2--2-------------------------2--2----------------------|
E|-2--0--0----------------0-----2--0--0---------------0---|
But that was long ago, And I owe you money but Business is slow, 
Sounds kinda funny hey,

e|-2--0-------0-----2-----------2--0------0-----2---------|
B|-2--0----------4--------------2--0---------4------------|
G|-4--1---------------3-4---4---4--1--------------3-4---4-|
D|-4--2----1--------------------4--2----1-----------------|
A|-2--2-------------------------2--2----------------------|
E|-2--0--0----------------0-----2--0--0---------------0---|
There you go, Callin' me honey though I think you know, 
You'll never see me again...

Chorus part 2:
e|--------------------------------------------------------------------|
B|----5-6-----4-3------5-6------4-3------5-6------4-3-----5-6-----4-3-|
G|----6-7-----5-4------6-7------5-4------6-7------5-4-----6-7-----5-4-|
D|--------------------------------------------------------------------|
A|--------------------------------------------------------------------|
E|--7------0-7-----0-7------0-7------0-7------0-7-----0-7------0-7----|
In the same old house, Two different people, Same drops of blood,
 Still light the path, to what used to be us, Hanging in the hallway now,
 Just shreds of paper, and shards of glass...

Bridge:
e|---------------------------------------------------------------|
B|---------------------------------------------------------------|
G|---------------------------------------------------------------|
D|---------------------------------------------------------------|
A|2-2---2-2---2-2---2-2---2-2---2-2---2-2---2-2---2-2---2-2---2-2|
E|2-2---2-2---2-2---2-2---2-2---2-2---2-2---2-2---2-2---2-2---2-2|
You burst through the gate, I stood up straight, You poured some wine, 
I drank yours and mine, you took my breath, and tied up my tongue, 
Yeah you were the one,
e|---------------------------------------------------------------|
B|---------------------------------------------------------------|
G|---------------------------------------------------------------|
D|---------------------------------------------------------------|
A|--2-2---2-2---2-2---2-2---2------------------------------------|
E|--2-2---2-2---2-2---2-2---2------------------------------------|
to lower my gun, You were the one, to lower my gun,
 You were the one... To lower my gun

e|-11--7--11-12-11-------------9---7--11--14---------|
B|-12--9--12------12----12-----12--7--12----11--12---|
G|-11--9--11---------------11--11--9--11-------------|
D|-9---6-------------11------------6-----------------|
A|---------------------------------------------------|
E|---------------------------------------------------|

Chorus part 1:
e|-2--0-------0-----2-----------2--0------0-----2---------|
B|-2--0----------4--------------2--0---------4------------|
G|-4--1---------------3-4---4---4--1--------------3-4---4-|
D|-4--2----1--------------------4--2----1-----------------|
A|-2--2-------------------------2--2----------------------|
E|-2--0--0----------------0-----2--0--0---------------0---|
But that was long ago, And I owe you money but Business is slow, 
Sounds kinda funny hey,

e|-2--0-------0-----2-----------2--0------0-----2---------|
B|-2--0----------4--------------2--0---------4------------|
G|-4--1---------------3-4---4---4--1--------------3-4---4-|
D|-4--2----1--------------------4--2----1-----------------|
A|-2--2-------------------------2--2----------------------|
E|-2--0--0----------------0-----2--0--0---------------0---|
There you go, Callin' me honey though I think you know,
 You'll never see me again...


Tab by Kelsey O'Neil

http://www.youtube.com/user/btown523?feature=mhum
Tap to rate this tab
 
# A B C D E F G H I J K L M N O P Q R S T U V W X Y Z