Song name
# A B C D E F G H I J K L M N O P Q R S T U V W X Y Z

Jay Brannan - Soda Shop tab

-------------------------------------------------------------------------------
			              Soda Shop - Jay Brannan
-------------------------------------------------------------------------------
Email: jtwl_2004@hotmail.com

Tuning: Standard (but he plays it with capo on 1)

Intro: (no lyrics)
e------------2--------------------|
B----0-------3-------0-------7----|
G----0-------4-------0-------7----|
D---------------------------------|
A------------------3---0-5-5---0--|
E--3---3-0-0---0------------------|x2

Verse 1: (the sidewalk is rushing...)
e-------------2--------------------|
B-----0-------3-------0-------7----|
G-----0-------4-------0-------7----|
D----------------------------------|
A-------------------3---0-5-5---0--|
E-3-3---3-0-0---0------------------|x4

pre-chorus:(no lyrics)
e-------------2---------------------------------2---------------|
B-----0-------3------0-------7p0--------0-------3-----0------7--|
G-----0-------4------0-------7p0--------0-------4-----0------7--|
D---------------------------------------------------------------|
A------------------3---0-5-5------------------------3---0---5---|
E-3-3---3-0-0---0-------------------3-3---3-0-0---0-------------|

Verse 2: (somehow i dialed my cell...)
e-------------2--------------------|
B-----0-------3-------0-------7----|
G-----0-------4-------0-------7----|
D----------------------------------|
A-------------------3---0-5-5---0--|
E-3-3---3-0-0---0------------------|x4

pe-chorus: (no lyrics)
e------------2---------------------------------2---------------|
B----0-------3------0-------7p0--------0-------3-----0------7--|
G----0-------4------0-------7p0--------0-------4-----0------7--|
D--------------------------------------------------------------|
A-----------------3---0-5-5------------------------3---0-5-5---|
E--3---3-0-0---0-------------------3-3---3-0-0---0-------------|

Chorus: (Shoobie doobie doo-wap...)
e-------------------------------------------------------|
B--------0-----3-----3----------------0------3-----3----|
G------0-----0-----0----------------0------0------0-----|
D----------------------0-----------------------------0--|
A----------2-----3---------0-------------2-------3------|
E--3-3-------------------0------3-3---------------------|x2

pre-chorus: (no lyrics)
e------------2---------------------------------2---------------|
B----0-------3------0-------7p0--------0-------3-----0------7--|
G----0-------4------0-------7p0--------0-------4-----0------7--|
D--------------------------------------------------------------|
A-----------------3---0-5-5------------------------3---0---5---|
E--3---3-0-0---0-------------------3-3---3-0-0---0-------------|

Verse 3: (you held my head over...)
e-------------2--------------------|
B-----0-------3-------0-------7----|
G-----0-------4-------0-------7----|
D----------------------------------|
A-------------------3---0-5-5---0--|
E-3-3---3-0-0---0------------------|x4

pre-chorus: (no lyrics)
e------------2---------------------------------2---------------|
B----0-------3------0-------7p0--------0-------3-----0------7--|
G----0-------4------0-------7p0--------0-------4-----0------7--|
D--------------------------------------------------------------|
A-----------------3---0-5-5------------------------3---0-5-5---|
E--3---3-0-0---0-------------------3-3---3-0-0---0-------------|

Chorus: (Shoobie doobie doo-wap...)
e-------------------------------------------------------|
B--------0-----3-----3----------------0------3-----3----|
G------0-----0-----0----------------0------0------0-----|
D----------------------0-----------------------------0--|
A----------2-----3---------0-------------2-------3------|
E--3-3-------------------0------3-3---------------------|x2

Bridge: (and when the world stops...)
e-------------2--------------------|
B-----0-------3-------0-------7----|
G-----0-------4-------0-------7----|
D----------------------------------|
A-------------------3---0-5-5---0--|
E---3---3-0-0---0------------------|x4

e------------2---------------------------------2---------------|
B----0-------3------0-------7----------0-------3-----0------7--|
G----0-------4------0-------7----------0-------4-----0------7--|
D--------------------------------------------------------------|
A-----------------3---0-5-5---0--------------------3---0-5-5---|
E--3---3-0-0---0-------------------3-3---3-0-0---0-------------|

pre-chorus: (no lyrics)
e-------------2-------------------|
B-----0-------3------0-------7----|
G-----0-------4------0-------7----|
D---------------------------------|
A------------------3---0-5-5---0--|
E-3-3---3-0-0---0-----------------|

Chorus: (Shoobie doobie doo-wap...)
e-------------------------------------------------------|
B--------0-----3-----3----------------0------3-----3----|
G------0-----0-----0----------------0------0------0-----|
D----------------------0-----------------------------0--|
A----------2-----3---------0-------------2-------3------|
E--3-3-------------------0------3-3---------------------|x2

Outro:                                                           end on
e------------2-------------------------------2---------------|   |----0-|
B----0-------3------0-------7p0------0-------3-----0------7+-|   |----0-|
G----0-------4------0-------7p0------0-------4-----0------7+-|   |------|
D------------------------------------------------------------|   |------|
A-----------------3---0-5-5----------------------3---0-5-5---|   |-0----|
E--3---3-0-0---0-------------------3---3-0-0---0-------------|x2 |--3---|

| p   pull-off
| +   harmonic


verse 1
The sidewalk is rushing at my head again
I'm lying on the street in the rain and wind
From doing forward rolls down Avenue A
With my guitar on my back don't let it end this way

verse 2
Somehow i dialed my cell 
I didn't know I could get service in hell
How quickly can you get here
Don't know where I am dear
Finally the world actually seems to be revolving around me

chorus
Shoobie doobie doo-wap
I over did it at the soda shop
Thanks for being my girl
At the "I don't know when to stop sock hop"

verse 3
You held my head over the edge of the bed
I remember it now but at the time I thought I was dead
Yyou put a pan there and held by hair
How can I repay you for saving me and my hardwood floor

*repeat chorus

bridge
And when the world stops spinning round
I picked the pen up off the ground
I read my up heaves much like tea leaves
They said its over so get sober or you'll die again

*repeat chorus
Tap to rate this tab
# A B C D E F G H I J K L M N O P Q R S T U V W X Y Z