Song name
# A B C D E F G H I J K L M N O P Q R S T U V W X Y Z

Jay Brannan - Zombie tab

Learned this by ear, it turned out to be pretty simple. This is my first tab, I 
hope it helps some people :) The words are matched up to get the timing of the 
notes down. Once you've got the timing down, the full lyrics are at the bottom of the page.

Capo on 7.

Intro:
  Em             C              G              D         
e[------0--------------0--------------3--------------2--------]
B[------0--------------1--------------0--------------3--------]
G[------0--------------0--------------0------------2----------]
D[----2--------------2--------------0------------0------------]
A[--2--------------3--------------2------------0--------------]
E[0--------------0--------------3-----------------------------]

Verse:
  Em             C              G              D         
e[------0--------------0--------------3--------------2--------]
B[------0--------------1--------------0--------------3--------]
G[------0--------------0--------------0------------2----------] (2x)
D[----2--------------2--------------0------------0------------]
A[--2--------------3--------------2------------0--------------]
E[0--------------0--------------3-----------------------------]
      Another he-ad hangs...chi-ild is slowly taken...
    When the...caused such... who are we mis-taken...

Bridge:
           Em              C               G               D         
         e[--------0---------------0---------------3---------------2------]
         B[----------0-----------1---1---------------0-----------3---3----]
  (2x)   G[------0-----0-------0-------0---------0-----0-------2-------2--]
         D[----2---------2---2-----------2-----0---------0---0-----------0]
         A[--2-------------3-----------------2-------------0--------------]
         E[0-------------------------------3------------------------------]
But you see, it's not... my family, in..he-ad in.... fight-ing...
With...tanks, and.... bombs, and their..he-ad in....   cry-ing...

Chorus:
           Em              C               G               D         
         e[--------0---------------0---------------3---------------2------]
         B[----------0-----------1---1---------------0-----------3---3----]
  (3x)   G[------0-----0-------0-------0---------0-----0-------2-------2--]
         D[----2---------2---2-----------2-----0---------0---0-----------0]
         A[--2-------------3-----------------2-------------0--------------]
         E[0-------------------------------3------------------------------]
What's.... he-----ad....   he-----ad, zo-m-bie zombie zombie--e--e
What's.... he-----ad....   he-----ad, zo-m-bie zombie zombie--e--e
      Oh, oh----

(rpt Intro, verse, bridge and chorus)
(rpt Intro)

LYRICS
(verse) Another head hangs lowly, child is slowly taken
When the violence caused such silence, who are we mistaken?

(bridge) But, you see, it's not me, it's not my family
In your head, in your head, they are fighting
With their tanks, and their bombs, and their bombs, and their guns
In your head, in your head, they are crying

(chorus)What's in your head, in your head
Zombie, zombie, zombie-e-e
What's in your head, in your head
Zombie, zombie, zombie-e-e
Oh, oh---mmm--

(verse)Another mother's breaking heart is taking over
When the violence causes silence, we must be mistaken

(bridge) It's the same old thing since 1916
In your head, in your head, they're still fighting
With their tanks, and their bombs, and their bombs, and their guns
In your head, in your head, they are dying

(chorus)In your head, In your head
Zombie, zombie, zombie-e-e
What's in your head, in your head
Zombie, zombie, zombie-e-e
Oh, oh, oh, oh, oh, oh, oh, oh, oh---mmmm---
Tap to rate this tab
# A B C D E F G H I J K L M N O P Q R S T U V W X Y Z