Song name
# A B C D E F G H I J K L M N O P Q R S T U V W X Y Z

Jay Brannan - Bodys A Temple tab

INTRO/VERSE/CHORUS

E----------------------------------------------------------------------------|
B----------------------------------------------------------------------------|
G-0-------0---0---0----------------------------------------------------------|
D-2---0---2---4---2---0---0--------------------------------------------------|
A-3---2---3---5---3---2---5--------------------------------------------------|
E-----3---------------3---5--------------------------------------------------|

BRIDGE

E-3---3---3---5---3---3---5--------------------------------------------------|
B-3---3---3---5---3---3---5--------------------------------------------------|
G-0---0---0---0---0---0---5---7----------------------------------------------|
D-2---0---2---5---2---0---5---7--HARMONICS-----------------------------------|
A-3---2---3---5---3---2---5---7----------------------------------------------|
E-0---3---0---0---0---3---5--------------------------------------------------|
Tap to rate this tab
 
# A B C D E F G H I J K L M N O P Q R S T U V W X Y Z