Song name
# A B C D E F G H I J K L M N O P Q R S T U V W X Y Z

Jay Chou - Bu Neng Shou De Mi Mi tab

Hey!!! I Really Love This Song And Decide To Tab It Out... Anything Wrong With
This Tab, Email Me At norman5cho@hotmail.com. This Tab Songs Just Like How Jay
Chou Play It... If U Like it, Please Rate And Comment!!!!

Tuning : Standard

There Is No Need For Capo

Guitar 1(Rhythm) : Acoustic Guitar
Guitar 2(Lead) : Electric Guitar

Intro :

Guitar 1(Rhythm) : Acoustic Guitar

e------------------------------------------------|
B------------------------------------------------|
G------------------------------------------------|
D----555---444---555---777---555---444--555--777-|
A---5-----5-----5-----5-----5-----5----5----5----|
E------------------------------------------------|

Verse :

Guitar 1(Rhythm) : Acoustic Guitar

e------------------------------------------------|
B------------------------------------------------|
G------------------------------------------------|
D----555---444---555---777---555---444--555--777-|
A---5-----5-----5-----5-----5-----5----5----5----|
E------------------------------------------------|

e------------------------------------------------|
B------------------------------------------------|
G------------------------------------------------|
D----555---444---555---777---555---444--555--777-|
A---5-----5-----5-----5-----5-----5----5----5----|
E------------------------------------------------|

e------------------------------------------------|
B------------------------------------------------|
G------------------------------------------------|
D----555---444---555---777---555---444--555--777-|
A---5-----5-----5-----5-----5-----5----5----5----|
E------------------------------------------------|

e------------------------------------------------|
B------------------------------------------------|
G------------------------------------------------|
D----555---444---555---777---555---444--222--444-|
A---5-----5-----5-----5-----5-----5----5----5----|
E------------------------------------------------|

Chorus :

Guitar 1(Rhythm) : Acoustic Guitar

e--3333333333333333--0000000000000000--00000000--22222222----|
B--3333333333333333--0000000000000000--11111111--33333333----|
G--0000000000000000--0000000000000000--00000000--22222222----|   X2
D--0000000000000000--2222222222222222--22222222--00000000----|
A--2222222222222222--2222222222222222--33333333--00000000----|
E--3333333333333333--0000000000000000--00000000--00000000----|

Guitar 2(Lead) : Electric Guitar (With Distortion)

e------------------------------------------------------------|
B--------------------8888888888888888------------------------|
G--------------------9999999999999999---55555555--77777777---|  x2
D--5555555555555555--9999999999999999---55555555--77777777---|
A--5555555555555555--7777777777777777---33333333--55555555---|
E--3333333333333333------------------------------------------|

Outro :

Guitar 1(Rhythm) : Acoustic Guitar

e--3333333333333333--0000000000000000--0000000000000000--2222222222222222-|
B--3333333333333333--0000000000000000--1111111111111111--3333333333333333-|
G--0000000000000000--0000000000000000--0000000000000000--2222222222222222-|
D--0000000000000000--2222222222222222--2222222222222222--0000000000000000-|
A--2222222222222222--2222222222222222--3333333333333333--0000000000000000-|
E--3333333333333333--0000000000000000--0000000000000000--0000000000000000-|

Guitar 2(Lead) : Electric Guitar

e------------------------------------------------------------------|
B-----15----13--12----15----13--12----15----13--12----15----13--12-|
G--12----12--------12----12--------12----12--------12----12--------|
D------------------------------------------------------------------|
A------------------------------------------------------------------|
E------------------------------------------------------------------|

e--------------------------------------------------------------------|
B-----15----13--12----15----13--12----15----12--10----15-------------|
G--12----12--------12----12--------12----12--------12----12-12/11-11-|
D--------------------------------------------------------------------|
A--------------------------------------------------------------------|
E--------------------------------------------------------------------|

I'll Add Verse 2 And Chorus 2 Later...
Tap to rate this tab
# A B C D E F G H I J K L M N O P Q R S T U V W X Y Z