Song name
# A B C D E F G H I J K L M N O P Q R S T U V W X Y Z

Jay Chou - First Kiss Secret Ost tab

First Kiss
Album: Secret OST
Standard Tuning


|----1-0---------|------------------|----------|----------|-------------------|
|--------3-1-1-0-|----0-1-3-----3---|------1-0-|----------|------------------1|
|--0-------------|--2---------0---0-|----0-----|--2-0-0---|----------------0--|
|----------------|------------------|----------|--------3-|--2-0---0-2---2----|
|----------------|------------------|--0-------|----------|------3---3-3------|
|--------1-------|--3-------0-------|----------|--1-------|--3----------------|


|----------|------------|--------------------0-1----------3|
|----------|------------|--1--1-0-1-3--3-3-1-----3---------|
|--0-0-1-2-|--2-1-2-4---|-------------------------------0--|
|----------|----------2-|-----------0-----------------0----|
|--------2-|------------|--0------------------------2------|
|----------|----0-------|------------------------3---------|

|--------0-----0-|--1-0-----|------0-3/7-5-|--0-3-1-0---0--------------0-|
|------1---------|------3-0-|--1-3---------|----------1----3--1------1---|
|--0-0-------0---|----------|--------------|-----------------------0-----|
|----------2-----|----------|------------0-|---------------------2-------|
|--------3-------|--2-------|--0-----------|------------------3----------|
|----------------|----------|--------------|----1-------3----------------| x2
Tap to rate this tab
# A B C D E F G H I J K L M N O P Q R S T U V W X Y Z