Guitaretab - guitar tabs
Song name
# A B C D E F G H I J K L M N O P Q R S T U V W X Y Z

Jay Chou - Cai Hong tab

Song: Cai Hong
Artist: Jay Chou

This song is wonderful so I decided to tab it out, it took me some time to figure it out 
done it all by hearing, I'm pretty sure its correct, this is the 1st tab I've made so 
you have any comments or corrections email me at Dark_Vendeta3@hotmail.com,I'm bored =)

Standard tuning

Intro:
E|-0-------1-------3-------1-------0-------1----------------------|
B|-----1-------1-------1-------1-------1-------1---3---1-0--------|
G|---0-------2-------0-------2---2---0-------2-----0---0-0--------|
D|---------0-----0-2-----2-0-----0---------0-----0----------------|
A|-3-----3-------------------------3-----3------------------------|
E|-------------------------------------------------3-3------------|

Verse 1:
E|-0-------1-------3-------1-------0-------0---0-------0-------0--|
B|-----1-------1-------1-------1-------1-----------1-------1------|
G|---0-------2-------0-------2---2---0-----------1---2---2---2---2|
D|---------0-----0-2-----2-0-----0--------------------------------|
A|-3-----3-------------------------3-----3-2-------0--------------|
E|-------------------------------------------4-------------3------|

E|-----1-------3-------3-------3---1-------1-------3-----3--------|
B|-1-------0-------0-------1-----------1-------1-------1---0------|
G|---2---2---0---0---0---0---0---0---2---2---2---2---2------------|
D|---------------------------------0------------------------------|
A|-------------------------0--------------------------------------|
E|-1-------3-------0-------------------------------3-------3------|

E|-0-------1-------3-------1-------0-------0---0-------0-------0--|
B|-----1-------1-------1-------1-------1-----------1-------1------|
G|---0-------2-------0-------2---2---0-----------1---2---2---2---2|
D|---------0-----0-2-----2-0-----0--------------------------------|
A|-3-----3-------------------------3-----3-2-------0--------------|
E|-------------------------------------------4-------------3------|

E|-----1-------3-------3-------3---1-------1-------3-3-3-3--------|
B|-1-------0-------0-------1-----------1-------1-----1-1---0------|
G|---2---2---0---0---0---0---0---0---2---2---2---2---2-2---0------|
D|---------------------------------0------------------------------|
A|-------------------------0--------------------------------------|
E|-1-------3-------0-------------------------------3-----3-3------|

*This pre-chorus is the ONLY part where guitar 2 comes in

Pre-Chorus:
(Guitar 1)
E|-----1-------3-----------------------3-------1-------0---0---0--|
B|---------------------0-------1-------1-------1-------3---3---1--|
G|---2---2---0---0---0---0---0---0---2---2---2---2---0---0---0---0|
D|---------------------------------0------------------------------|
A|-------------------------0-----------------------3--------------|
E|-1-------3-------0-----------------------3----------------------|

E|-----2-------0-------0-------0-------2-------2---3-3-3-3--------|
B|-----3-------0-------1-------1-------3-------3-----1-1---0------|
G|---2---2---2---2---0---0---0---0---2---2---2---2---2-2---0---4--|
D|---------------------------------0------------------------------|
A|-2---------------0----------------------------------------------|
E|---------0---------------3---------------2-------3-----3-3------|


(Guitar 2)
E|-----8-------10------10------8-------8---8-----------8---8---8--|
B|---6-------8-------8-------8-------6-------8-6---5--------------|
G|----------------------------------------------------------------|
D|----------------------------------------------------------------|
A|----------------------------------------------------------------|
E|----------------------------------------------------------------|

E|-7-------7-------8-------8-------10------10------8-------10-----|
B|---7---7---9---9---10-10-10-----------------------------------|
G|-----7-------9-------9-------9----------------------------------|
D|----------------------------------------------------------------|
A|----------------------------------------------------------------|
E|----------------------------------------------------------------|


Chorus:
E|-----0-------0-------0-------0-------1-------3-------0---1---3--|
B|-------------------------------------1-------1-------1---1---1--|
G|---0---0---1---1---0---0---0---0---2---2---2---2---0---0-2-2-2--|
D|---------2------------------------------------------------------|
A|-3-----------------------------------------------3--------------|
E|-----------------5-------3-------1-------3---------------3------|

E|-----0-------0---------------0-------1-------3---------0--------|
B|-----------------------------1-------1-------1-------3---1------|
G|---0---0---1---1-----5-----2-------2---2---2---2---0------------|
D|---------2-----------------------0------------------------------|
A|-3-----------------0-----------------------------3--------------|
E|-----------------5-----3-2---------------3----------------------|

[ Tab from: http://www.guitaretab.com/j/jay-chou/103490.html ]
Verse 2:
E|-0-------1-------3-------1-------0-------0---0-------0-------0--|
B|-----1-------1-------1-------1-------1-----------1-------1------|
G|---0-------2-------0-------2---2---0-----------1---2---2---2---2|
D|---------0-----0-2-----2-0-----0--------------------------------|
A|-3-----3-------------------------3-----3-2-------0--------------|
E|-------------------------------------------4-------------3------|

E|-----1-------3-------3-------3---1-------1-------3-3-3-3--------|
B|-1-------0-------0-------1-----------1-------1-----1-1---0------|
G|---2---2---0---0---0---0---0---0---2---2---2---2---2-2---0------|
D|---------------------------------0------------------------------|
A|-------------------------0--------------------------------------|
E|-1-------3-------0-------------------------------3-----3-3------|


Pre-Chorus:
*For this pre-chorus, guitar 2 is not needed
E|-----1-------3-----------------------3-------1-------0---0---0--|
B|---------------------0-------1-------1-------1-------3---3---1--|
G|---2---2---0---0---0---0---0---0---2---2---2---2---0---0---0---0|
D|---------------------------------0------------------------------|
A|-------------------------0-----------------------3--------------|
E|-1-------3-------0-----------------------3----------------------|

E|-----2-------0-------0-------0-------2-------2---3-3-3-3--------|
B|-----3-------0-------1-------1-------3-------3-----1-1---0------|
G|---2---2---2---2---0---0---0---0---2---2---2---2---2-2---0---4--|
D|---------------------------------0------------------------------|
A|-2---------------0----------------------------------------------|
E|---------0---------------3---------------2-------3-----3-3------|

Chorus:
E|-----0-------0-------0-------0-------1-------3-------0---1---3--|
B|-------------------------------------1-------1-------1---1---1--|
G|---0---0---1---1---0---0---0---0---2---2---2---2---0---0-2-2-2--|
D|---------2------------------------------------------------------|
A|-3-----------------------------------------------3--------------|
E|-----------------5-------3-------1-------3---------------3------|

E|-----0-------0---------------0-------1-------3---------0--------|
B|-----------------------------1-------1-------1-------3---1------|
G|---0---0---1---1-----5-----2-------2---2---2---2---0------------|
D|---------2-----------------------0------------------------------|
A|-3-----------------0-----------------------------3--------------|
E|-----------------5-----3-2---------------3----------------------|

Bridge:
E|-----0-------0-------0-------0-------1-------3-------0---1---3--|
B|-------------------------------------1-------1-------1---1---1--|
G|---0---0---1---1---0---0---0---0---2---2---2---2---0---0-2-2-2--|
D|---------2------------------------------------------------------|
A|-3-----------------------------------------------3--------------|
E|-----------------5-------3-------1-------3---------------3------|

E|-----0-------0-------0-------0-------1-------3-------0---1---3--|
B|-------------------------------------1-------1-------1---1---1--|
G|---0---0---1---1---0---0---0---0---2---2---2---2---0---0-2-2-2--|
D|---------2------------------------------------------------------|
A|-3-----------------------------------------------3--------------|
E|-----------------5-------3-------1-------3---------------3------|

Last chorus:
E|-----0-------0-------0-------0-------1-------3-------0---1---3--|
B|-------------------------------------1-------1-------1---1---1--|
G|---0---0---1---1---0---0---0---0---2---2---2---2---0---0-2-2-2--|
D|---------2------------------------------------------------------|
A|-3-----------------------------------------------3--------------|
E|-----------------5-------3-------1-------3---------------3------|

E|-----0-------0--------------------------------------------------|
B|----------------------------------------------------------------|
G|---0---0---1---1-----5---------pause~~~~~-----------------------|
D|---------2------------------------------------------------------|
A|-3-----------------0--------------------------------------------|
E|-----------------5-----3-2--------------------------------------|

E|-----1-------3---------0----------------------------------------|
B|-----1-------1-------3---1--------------------------------------|
G|---2---2---2---2---0--------------------------------------------|
D|-0--------------------------------------------------------------|
A|-----------------3----------------------------------------------|
E|---------3------------------------------------------------------|

Ending:
E|-0-------1-------3-------1-------0------------------------------|
B|-----1-------1-------1-------1---1------------------------------|
G|---0-------2-------0-------2---2-0------------------------------|
D|---------0-----0-2-----2-0-----0--------------------------------|
A|-3-----3-------------------------3------------------------------|
E|----------------------------------------------------------------|


There, enjoy =)
Related for Cai Hong tab